Sound will begin in 5 seconds

Quaking Testicles

Chords
01234567891011121314151617181920212223
E
B
G
D
A
E
B
0 1 2 3 4 5 6 7 8 9 10 11 12 13 14 15 16 17 18 19 20 21 22 23
(/) Slide Up  (\) Slide Down  (h) Hammer On  (p) Pull Off  (b) Bend (r) Release (v) Vibrato

Stave 1:

E|-----2-----------------------2--------3-----------2--------------------------------------
B|--------3-----------------------3-----1--------------3-----------------------------------
G|-----------0-----------------------0--0-----------------0--------------7--7--7--7--7--7--
D|--2-----------------------0-----------2--------0-----------------------7--7--7--7--7--7--
A|--------------3--------3--------------3--------------------3--------3--5--5--5--5--5--5--
D|--------------------------------------x--------------------------------------------------

Stave 2:

E|-----------------------------------------2--2--2-----------------------------------------
B|-----------------------8--6--3-----------3--2--2--------------------------------8--6--3--
G|--5--5--5--5--5--5-----7--5--2-----------2--0--0--------------0-----------0-----7--5--2--
D|--5--5--5--5--5--5-----5--3--0-----0-----0--2--0-----------2-----------0-----0--5--3--0--
A|--3--3--3--3--3--3-----------------0-----0--2--2--------3--------3--2--------------------
D|-----------------------------------0-----0--x--x-----------------------------------------

Stave 3:

E|--------------------------------------------------------------------------------------
B|--------------------------------------------------------------------------------------
G|--------------------------------------------------------------------------------------
D|-----0-----------------0-----------------------0-----------------0--------5--3--3--5--
A|--0-----0-----------0-----0-----------------0-----0-----------0-----0-----5--3--3--5--
D|-----------6--5--0-----------6--5--0--3--5-----------6--5--0-----------6--5--3--3--5--

http://www.guitartabcreator.com
Guitar Tab Creator is intended to store guitar tab created through the tool. It currently does not support in-line text editing. Any text you place in here will be lost. If you need to comment on your tab, please use the "Tab Notes" section located below.