Great Fairy's Fountain

01234567891011121314151617181920212223
E
B
G
D
A
E
B
0 1 2 3 4 5 6 7 8 9 10 11 12 13 14 15 16 17 18 19 20 21 22 23
(/) Slide Up  (\) Slide Down  (h) Hammer On  (p) Pull Off  (b) Bend (r) Release (v) Vibrato

Stave 1:

E|--5-----------3-----------2-----------3-----------|--3-----------1-----------0-----------1-----------|--
B|-----3-----3-----3-----3-----3-----3-----3-----3--|-----1-----1-----1-----1-----1-----1-----1-----1--|--
G|--------0-----------0-----------0-----------0-----|--------2-----------2-----------2-----------2-----|--
D|--------------------------------------------------|--------------------------------------------------|--
A|--------------------------1-----------------------|--0-----------------------0-----------------------|--
E|--1-----------------------------------------------|--------------------------------------------------|--

Stave 2:

E|--------------------------------------------------|--0-----------------------------------------------|--
B|--6-----------5-----------4-----------5-----------|--------------3-----------2-----------3-----------|--
G|-----3-----3-----3-----3-----3-----3-----3-----3--|-----2-----2-----2-----2-----2-----2-----2-----2--|--
D|--------5-----------5-----------5-----------5-----|--------3-----------3-----------3-----------3-----|--
A|--------------------------------------------------|--------------------------------------------------|--
E|--3-----------------------3-----------------------|--1-----------------------1-----------------------|--

Stave 3:

E|--5-----------3-----------2-----------3-----------|--6-----------5-----------4-----------5-----------|--
B|-----3-----3-----3-----3-----3-----3-----3-----3--|-----4-----4-----4-----4-----4-----4-----4-----4--|--
G|--------0-----------0-----------0-----------0-----|--------5-----------5-----------5-----------5-----|--
D|--------------------------------------------------|--------------------------0-----------------------|--
A|--1-----------------------1-----------------------|--0-----------------------------------------------|--
E|--------------------------------------------------|--------------------------------------------------|--

Stave 4:

E|--
B|--
G|--
D|--
A|--
E|--

							http://www.guitartabcreator.com
Chords

Instruments
{"strings":[[[5,".",".",".",3,".",".",".",2,".",".",".",3,".",".",".","|",3,".",".",".",1,".",".",".",0,".",".",".",1,".",".",".","|"],[".",3,".",3,".",3,".",3,".",3,".",3,".",3,".",3,"|",".",1,".",1,".",1,".",1,".",1,".",1,".",1,".",1,"|"],[".",".",0,".",".",".",0,".",".",".",0,".",".",".",0,".","|",".",".",2,".",".",".",2,".",".",".",2,".",".",".",2,".","|"],[".",".",".",".",".",".",".",".",".",".",".",".",".",".",".",".","|",".",".",".",".",".",".",".",".",".",".",".",".",".",".",".",".","|"],[".",".",".",".",".",".",".",".",1,".",".",".",".",".",".",".","|",0,".",".",".",".",".",".",".",0,".",".",".",".",".",".",".","|"],[1,".",".",".",".",".",".",".",".",".",".",".",".",".",".",".","|",".",".",".",".",".",".",".",".",".",".",".",".",".",".",".",".","|"]],[[".",".",".",".",".",".",".",".",".",".",".",".",".",".",".",".","|",0,".",".",".",".",".",".",".",".",".",".",".",".",".",".",".","|"],[6,".",".",".",5,".",".",".",4,".",".",".",5,".",".",".","|",".",".",".",".",3,".",".",".",2,".",".",".",3,".",".",".","|"],[".",3,".",3,".",3,".",3,".",3,".",3,".",3,".",3,"|",".",2,".",2,".",2,".",2,".",2,".",2,".",2,".",2,"|"],[".",".",5,".",".",".",5,".",".",".",5,".",".",".",5,".","|",".",".",3,".",".",".",3,".",".",".",3,".",".",".",3,".","|"],[".",".",".",".",".",".",".",".",".",".",".",".",".",".",".",".","|",".",".",".",".",".",".",".",".",".",".",".",".",".",".",".",".","|"],[3,".",".",".",".",".",".",".",3,".",".",".",".",".",".",".","|",1,".",".",".",".",".",".",".",1,".",".",".",".",".",".",".","|"]],[[5,".",".",".",3,".",".",".",2,".",".",".",3,".",".",".","|",6,".",".",".",5,".",".",".",4,".",".",".",5,".",".",".","|"],[".",3,".",3,".",3,".",3,".",3,".",3,".",3,".",3,"|",".",4,".",4,".",4,".",4,".",4,".",4,".",4,".",4,"|"],[".",".",0,".",".",".",0,".",".",".",0,".",".",".",0,".","|",".",".",5,".",".",".",5,".",".",".",5,".",".",".",5,".","|"],[".",".",".",".",".",".",".",".",".",".",".",".",".",".",".",".","|",".",".",".",".",".",".",".",".",0,".",".",".",".",".",".",".","|"],[1,".",".",".",".",".",".",".",1,".",".",".",".",".",".",".","|",0,".",".",".",".",".",".",".",".",".",".",".",".",".",".",".","|"],[".",".",".",".",".",".",".",".",".",".",".",".",".",".",".",".","|",".",".",".",".",".",".",".",".",".",".",".",".",".",".",".",".","|"]],[[],[],[],[],[],[]]],"numberofstrings":6,"notes":["E","B","G","D","A","E","B"],"capo":0,"stringnotes":["E4","B3","G3","D3","A2","E2"],"comments":["Stave 1:","Stave 2:","Stave 3:","Stave 4:"],"timing":[[null,null,null,null,null,null,null,null,null,null,null,null,null,null,null,null,null,null,null,null,null,null,null,null,null,null,null,null,null,null,null,null,null,null,"W"],["W","W","W","W","W","W","W","W","W","W","W","W","W","W","W","W",null,"W","W","W","W","W","W","W","W","W","W","W","W","W","W","W","W"],["W","W","W","W","W","W","W","W","W","W","W","W","W","W","W","W",null,"W","W","W","W","W","W","W","W","W","W","W","W","W","W","W","W"],[]],"timingvisible":false,"tabcounter":0,"stave":3,"totalstaves":4,"instrument":"6guitar","selectedtuning":"6_standard","version":"13"}

Member for

1 month 1 week
Submitted by ShiceknChit on Sat, 2021-03-06 05:43