Sound will begin in 5 seconds

It Is Well

01234567891011121314151617181920212223
E
B
G
D
A
E
B
0 1 2 3 4 5 6 7 8 9 10 11 12 13 14 15 16 17 18 19 20 21 22 23
(/) Slide Up  (\) Slide Down  (h) Hammer On  (p) Pull Off  (b) Bend (r) Release (v) Vibrato

Build 1 (x3)

E|--------------------------------------------------------------------------------------------------
B|--5-----5-----5-----3-----5-----5-----5-----7-----8-----8-----8-----8-----8-----8-----8-----8-----
G|-----5-----5-----5-----5-----5-----5-----5-----7-----------------------9-----------9-----------9--
D|-----------------------------------------------------9-----9-----9-----------9-----------9--------
A|--------------------------------------------------------------------------------------------------
E|--------------------------------------------------------------------------------------------------

Build 2

E|--------------------------------------------------------------------------------------
B|--5-----5-----5-----5-----8-----8-----7-----7-----8-----8-----8-----8-----8-----8-----
G|-----5-----5-----5-----5-----9-----9-----9-----9-----9-----9-----9-----9-----9-----9--
D|--------------------------------------------------------------------------------------
A|--------------------------------------------------------------------------------------
E|--------------------------------------------------------------------------------------

Build 3 (x2)

E|----------12------12------12-------------15------15------14------14/15------15------15------15------
B|--12--15--------------------------------------------------------------------------------------------
G|--------------12------12------12--12/16------16------16------16---------16------16------16------16--
D|----------------------------------------------------------------------------------------------------
A|----------------------------------------------------------------------------------------------------
E|----------------------------------------------------------------------------------------------------

http://www.guitartabcreator.com
Guitar Tab Creator is intended to store guitar tab created through the tool. It currently does not support in-line text editing. Any text you place in here will be lost. If you need to comment on your tab, please use the "Tab Notes" section located below.