Sound will begin in 5 seconds

From the Inside Out

Chords
01234567891011121314151617181920212223
E
B
G
D
A
E
B
0 1 2 3 4 5 6 7 8 9 10 11 12 13 14 15 16 17 18 19 20 21 22 23
(/) Slide Up  (\) Slide Down  (h) Hammer On  (p) Pull Off  (b) Bend (r) Release (v) Vibrato

Intro riff

E|-----------------11-------------11------------------
B|---------12-----------------12------12--14--11------
G|--11h13------13---------11----------------------11--
D|----------------------------------------------------
A|----------------------------------------------------
E|----------------------------------------------------

Solo

E|------------------------------------------------------------------11--11--11--11--11--11--11--11--
B|--12--12--12--12--12--12--12--12--12--12--12--12--12--12--12--12--11--11--11--11--11--11--11--11--
G|--13--13--13--13--13--13--13--13--11--11--11--11--11--11--11--11----------------------------------
D|--------------------------------------------------------------------------------------------------
A|--------------------------------------------------------------------------------------------------
E|--------------------------------------------------------------------------------------------------

Solo (con't)

E|--12--12--12--12--11--11--11--11------------------------------------------------------------
B|--11--11--11--11--11--11--11--11--12--11--9--11------12--11--9--9--11-----------------------
G|-------------------------------------------------11--------------------9--8--9--8--6--8--6--
D|--------------------------------------------------------------------------------------------
A|--------------------------------------------------------------------------------------------
E|--------------------------------------------------------------------------------------------

Solo (con't)

E|---------------------------------------------11--11--11--11--11--11--11--11--11--
B|--9--9--9--9--9--9--9--9--12--11--9--11--12------11--11--11--11--11--11--11--11--
G|--6--6--6--6--6--6--6--6---------------------------------------------------------
D|---------------------------------------------------------------------------------
A|---------------------------------------------------------------------------------
E|---------------------------------------------------------------------------------

Solo (con't)

E|---------------------11--11--11--11--11--11--11--11--11------16------16------16------16------16--
B|--12--11--9--11--12------11--11--11--11--11--11--11--11--14------14------14------14------14------
G|-------------------------------------------------------------------------------------------------
D|-------------------------------------------------------------------------------------------------
A|-------------------------------------------------------------------------------------------------
E|-------------------------------------------------------------------------------------------------

Solo (con't)

E|---------18v--
B|--14/16-------
G|--------------
D|--------------
A|--------------
E|--------------

http://www.guitartabcreator.com
Guitar Tab Creator is intended to store guitar tab created through the tool. It currently does not support in-line text editing. Any text you place in here will be lost. If you need to comment on your tab, please use the "Tab Notes" section located below.