Sound will begin in 5 seconds

Always

Chords
01234567891011121314151617181920212223
E
B
G
D
A
E
B
0 1 2 3 4 5 6 7 8 9 10 11 12 13 14 15 16 17 18 19 20 21 22 23
(/) Slide Up  (\) Slide Down  (h) Hammer On  (p) Pull Off  (b) Bend (r) Release (v) Vibrato

Intro riff

E|---------------------
B|--10--12--14---------
G|--------------9--11--
D|---------------------
A|---------------------
E|---------------------

Verse

E|----------------------------------------------------------------------------
B|--------7--------7--------7--------7----------7--------7--------7--------7--
G|-----8-----8--------8--------8--------8h9--------9--------9--------9--------
D|--9-----------9--------9--------9----------9--------9--------9--------9-----
A|----------------------------------------------------------------------------
E|----------------------------------------------------------------------------

Bridge

E|-----|-----|----------------------------------------------------
B|--7--|--7--|----------------------------------------------------
G|--8--|--9--|--7--7--6--6--------------7--7--6--6----------------
D|--9--|--9--|--------------7--7--------------------7--7--7/9--9--
A|-----|-----|--------------------7--7----------------------------
E|-----|-----|----------------------------------------------------

Bridge (con't)

E|-----|-----|--5/10--10--10--10--9--9--9--------------------------------10--10--10--9--9--9--12--12--
B|-----|--3--|-----------------------------10--10--10-----------------------------------------x---x---
G|--2--|--2--|-----------------------------------------9--9--9--9--9--9-----------------------9---9---
D|--2--|--0--|----------------------------------------------------------------------------------------
A|--0--|-----|----------------------------------------------------------------------------------------
E|-----|-----|----------------------------------------------------------------------------------------

http://www.guitartabcreator.com
Guitar Tab Creator is intended to store guitar tab created through the tool. It currently does not support in-line text editing. Any text you place in here will be lost. If you need to comment on your tab, please use the "Tab Notes" section located below.