fcshay

Chords

01234567891011121314151617181920212223
E
B
G
D
A
E
B
0 1 2 3 4 5 6 7 8 9 10 11 12 13 14 15 16 17 18 19 20 21 22 23
(/) Slide Up  (\) Slide Down  (h) Hammer On  (p) Pull Off  (b) Bend (r) Release (v) Vibrato

Stave 1:

D|------------------------------------------------------------------------------
A|------------------------------------------------------------------------------
F|------------------------------------------------------------------------------
C|------------------------------------------------------------------------------
G|---------------8-------------------8-------------------8-------------------
D|-7-8-7----8----8-7-8-7----8----8-7-8-7----8----8-4-4-3-3----
G|-7-8-7-7----------7-8-7-7----------7-8-7-7----------4-4-3-3----

Stave 2:

D|------------------------------------------------------------------------------
A|------------------------------------------------------------------------------
F|------------------------------------------------------------------------------
C|------------------------------------------------------------------------------
G|---------------8-------------------8-------------------8-------------------
D|-7-8-7----8----8-7-8-7----8----8-7-8-7----8----8-3-3-2-2----
G|-7-8-7-7----------7-8-7-7----------7-8-7-7----------3-3-2-2----

Stave 3:

D|------------------------------------------------
A|------------------------------------------------
F|------------------------------------------------
C|------------------------------------------------
G|---------------------6-------------4-5-5-4-
D|-0-2-3-0-2-3-0-4-0-2-3-0-2-3-3-2-
G|-0-2-3-0-2-3-0----0-2-3-0-------------

Stave 4:

D|------------------------------------------------
A|------------------------------------------------
F|------------------------------------------------
C|------------------------------------------------
G|---------------------6-------------4----------
D|-0----3-0-2-3-0-4-0-2-3-0-2-3-2-0-
G|-0----3-0-2-3-0----0-2-3-0----3-2-0-

Stave 5:

D|----
A|----
F|----
C|----
G|----
D|----
G|----

							http://www.guitartabcreator.com
Instruments
{"strings":[[[".","_","_","_","_","_","_","_","_","_","_","_","_","_","_","_","_","_","_","_","_","_","_","_","_","_"],[".","_","_","_","_","_","_","_","_","_","_","_","_","_","_","_","_","_","_","_","_","_","_","_","_","_"],[".","_","_","_","_","_","_","_","_","_","_","_","_","_","_","_","_","_","_","_","_","_","_","_","_","_"],[".","_","_","_","_","_","_","_","_","_","_","_","_","_","_","_","_","_","_","_","_","_","_","_","_","_"],[".","_","_","_","_",8,"_","_","_","_","_","_",8,"_","_","_","_","_","_",8,"_","_","_","_","_","_"],[7,8,7,"_",8,"_",8,7,8,7,"_",8,"_",8,7,8,7,"_",8,"_",8,4,4,3,3,"_"],[7,8,7,7,"_","_","_",7,8,7,7,"_","_","_",7,8,7,7,"_","_","_",4,4,3,3,"_"]],[[".","_","_","_","_","_","_","_","_","_","_","_","_","_","_","_","_","_","_","_","_","_","_","_","_","_"],[".","_","_","_","_","_","_","_","_","_","_","_","_","_","_","_","_","_","_","_","_","_","_","_","_","_"],[".","_","_","_","_","_","_","_","_","_","_","_","_","_","_","_","_","_","_","_","_","_","_","_","_","_"],[".","_","_","_","_","_","_","_","_","_","_","_","_","_","_","_","_","_","_","_","_","_","_","_","_","_"],[".","_","_","_","_",8,"_","_","_","_","_","_",8,"_","_","_","_","_","_",8,"_","_","_","_","_","_"],[7,8,7,"_",8,"_",8,7,8,7,"_",8,"_",8,7,8,7,"_",8,"_",8,3,3,2,2,"_"],[7,8,7,7,"_","_","_",7,8,7,7,"_","_","_",7,8,7,7,"_","_","_",3,3,2,2,"_"]],[[".","_","_","_","_","_","_","_","_","_","_","_","_","_","_","_"],[".","_","_","_","_","_","_","_","_","_","_","_","_","_","_","_"],[".","_","_","_","_","_","_","_","_","_","_","_","_","_","_","_"],[".","_","_","_","_","_","_","_","_","_","_","_","_","_","_","_"],[".","_","_","_","_","_","_",6,"_","_","_","_",4,5,5,4],[0,2,3,0,2,3,0,4,0,2,3,0,2,3,3,2],[0,2,3,0,2,3,0,"_",0,2,3,0,"_","_","_","_"]],[[".","_","_","_","_","_","_","_","_","_","_","_","_","_","_","_"],[".","_","_","_","_","_","_","_","_","_","_","_","_","_","_","_"],[".","_","_","_","_","_","_","_","_","_","_","_","_","_","_","_"],[".","_","_","_","_","_","_","_","_","_","_","_","_","_","_","_"],[".","_","_","_","_","_","_",6,"_","_","_","_",4,"_","_","_"],[0,"_",3,0,2,3,0,4,0,2,3,0,2,3,2,0],[0,"_",3,0,2,3,0,"_",0,2,3,0,"_",3,2,0]],[[null,null,"_"],[null,null,"_"],[null,null,"_"],[null,null,"_"],[null,null,"_"],[null,null,"_"],[null,null,"_"]]],"numberofstrings":7,"notes":["D","A","F","C","G","D","G"],"capo":0,"stringnotes":["D1","A2","F2","C3","G5","D6","G7"],"comments":["Stave 1:","Stave 2:","Stave 3:","Stave 4:","Stave 5:"],"timing":[[null,"W","W","W","W","W","W","W","W","W","W","W","W","W","W","W","W","W","W","W","W","W","W","W","W","W"],[null,"W","W","W","W","W","W","W","W","W","W","W","W","W","W","W","W","W","W","W","W","W","W","W","W","W"],[null,"W","W","W","W","W","W","W","W","W","W","W","W","W","W","W","W"],[null,"W","W","W","W","W","W","W","W","W","W","W","W","W","W","W","W"],[null,null,null,"W",null,"W"]],"timingvisible":false,"tabcounter":3,"stave":4,"totalstaves":5,"instrument":"7guitar","selectedtuning":"7guitar","version":"13"}

Member for

4 months
Submitted by shaylikesmusic on Tue, 2020-06-23 22:40