Luigi's Mantion

01234567891011121314151617181920212223
E
B
G
D
A
E
B
0 1 2 3 4 5 6 7 8 9 10 11 12 13 14 15 16 17 18 19 20 21 22 23
(/) Slide Up  (\) Slide Down  (h) Hammer On  (p) Pull Off  (b) Bend (r) Release (v) Vibrato

Stave 1:

E|-----0-----0--------|-----0-----0--
B|--------4-----1--0--|--------4-----
G|--2-----------------|--2-----------
D|--------------------|--------------
A|--------------------|--------------
E|--------------------|--------------

Stave 2:

E|--0--0--0--0--0-----0--------|-----------------------------------|--0--0--0--0--0-----0--------|-----------------------0--------------
B|-----------------1-----4--0--|--3--3--3--3--3--0--3--1-----0-----|-----------------1-----4--0--|--3--3--3--3--3--1--3-----3--1--0-----
G|-----------------------------|--------------------------2--------|-----------------------------|-----------------------------------2--
D|-----------------------------|--------------------------------2--|-----------------------------|--------------------------------------
A|-----------------------------|-----------------------------------|-----------------------------|--------------------------------------
E|-----------------------------|-----------------------------------|-----------------------------|--------------------------------------

							http://www.guitartabcreator.com
Chords

Tab Notes
I'm not a musician, I have no idea what all this means. But the strings and tabs are right so just play it like it looks.
Instruments
{"strings":[[[".",0,".",0,".",".","|",".",0,".",0],[".",".",4,".",1,0,"|",".",".",4,"."],[2,".",".",".",".",".","|",2,".",".","."],[".",".",".",".",".",".","|",".",".",".","."],[".",".",".",".",".",".","|",".",".",".","."],[".",".",".",".",".",".","|",".",".",".","."]],[[0,0,0,0,0,".",0,".",".","|",".",".",".",".",".",".",".",".",".",".",".","|",0,0,0,0,0,".",0,".",".","|",".",".",".",".",".",".",".",0,".",".",".","."],[".",".",".",".",".",1,".",4,0,"|",3,3,3,3,3,0,3,1,".",0,".","|",".",".",".",".",".",1,".",4,0,"|",3,3,3,3,3,1,3,".",3,1,0,"."],[".",".",".",".",".",".",".",".",".","|",".",".",".",".",".",".",".",".",2,".",".","|",".",".",".",".",".",".",".",".",".","|",".",".",".",".",".",".",".",".",".",".",".",2],[".",".",".",".",".",".",".",".",".","|",".",".",".",".",".",".",".",".",".",".",2,"|",".",".",".",".",".",".",".",".",".","|",".",".",".",".",".",".",".",".",".",".",".","."],[".",".",".",".",".",".",".",".",".","|",".",".",".",".",".",".",".",".",".",".",".","|",".",".",".",".",".",".",".",".",".","|",".",".",".",".",".",".",".",".",".",".",".","."],[".",".",".",".",".",".",".",".",".","|",".",".",".",".",".",".",".",".",".",".",".","|",".",".",".",".",".",".",".",".",".","|",".",".",".",".",".",".",".",".",".",".",".","."]]],"numberofstrings":6,"notes":["E","B","G","D","A","E","B"],"capo":0,"stringnotes":["E4","B3","G3","D3","A2","E2"],"comments":["Stave 1:","Stave 2:"],"timing":[["W","W","W","W","W","W",null,"W","W","W","W"],["W","W","W","W","W","W","W","W","W",null,"W","W","W","W","W","W","W","W","W","W","W","W","W","W","W","W","W","W","W","W","W","W","W","W","W","W","W","W","W","W","W","W","W","W"]],"timingvisible":false,"tabcounter":44,"stave":1,"totalstaves":2,"instrument":"6guitar","selectedtuning":"6_standard","version":"13"}

Member for

1 week 6 days
Submitted by ShawnZup on Sun, 2021-02-21 08:53