Sound will begin in 5 seconds

Nicole's Song

Chords
01234567891011121314151617181920212223
E
B
G
D
A
E
B
0 1 2 3 4 5 6 7 8 9 10 11 12 13 14 15 16 17 18 19 20 21 22 23
Song Science #1: How Pros Use 6 Chords to Write Hit Songs
(/) Slide Up  (\) Slide Down  (h) Hammer On  (p) Pull Off  (b) Bend (r) Release (v) Vibrato

Stave 1:

E|----------------------------------------------------------
B|--------------2--5----------------------------------------
G|--9-----------2--6--------11------------------------------
D|--7--7--4-----1--4-----7--11--12-----7--12--11--9--11--2--
A|--5--9--4-----2--5-----7--9---12-----7--12--11--9--11--2--
E|-----7--2--------------5------10-----5--10--9---7--9---0--

Stave 2:

E|-----------------------------------------------------
B|-----------------------------------------------------
G|--------9--------------------------------------------
D|-----7-----7--------7-----------4-----------7-----7--
A|--5--------------9-----9-----4-----4-----7-----7--7--
E|--------------7-----------2-----------5-----------5--

Stave 3:

E|----------------------------------------------------------
B|--------------10--10--9--7--------------------------------
G|----------------------------9--------------7--7--6--4--6--
D|--7--7--7--7-------------------7--7--7--7-----------------
A|----------------------------------------------------------
E|----------------------------------------------------------

Stave 4:

E|------------------------------------------------------------------12--9------
B|--------------10--10--12--12--10--------------14--14--12--10--12---------10--
G|-----------------------------------------------------------------------------
D|--7--7--7--7----------------------7--7--7--7---------------------------------
A|-----------------------------------------------------------------------------
E|-----------------------------------------------------------------------------

Stave 5:

E|----------12--14--16---------------------------
B|--12--14--------------10--9--7-----------------
G|--------------------------------9--7--6--4--6--
D|--------------------------------------------7--
A|-----------------------------------------------
E|-----------------------------------------------

Stave 6:

E|--------------------
B|--------------------
G|-----------------2--
D|--------2-----2-----
A|-----4-----3--------
E|--2-----------------

http://www.guitartabcreator.com
Guitar Tab Creator is intended to store guitar tab created through the tool. It currently does not support in-line text editing. Any text you place in here will be lost. If you need to comment on your tab, please use the "Tab Notes" section located below.