Sound will begin in 5 seconds

Chris Traeger

Chords
01234567891011121314151617181920212223
E
B
G
D
A
E
B
0 1 2 3 4 5 6 7 8 9 10 11 12 13 14 15 16 17 18 19 20 21 22 23
Song Science #1: How Pros Use 6 Chords to Write Hit Songs
(/) Slide Up  (\) Slide Down  (h) Hammer On  (p) Pull Off  (b) Bend (r) Release (v) Vibrato

Stave 1:

E|-------------------------------------------------------------------------
B|------9-----------------------0h5h9p5h7h9p5p0-----0h4h7p4h5h7p2p0--------
G|---8-----4--6--------6--4---------------------------------------------9--
D|---6--6--4--6--------6--4---------------------------------------------6--
A|---7--7--0--0--------0--0---------------------------------------------7--
E|--h------0--0--------0--0------------------------------------------------

Stave 2:

E|-------7h0h4h5p4p0-----
B|--0h5---------------0--
G|-----------------------
D|-----------------------
A|-----------------------
E|-----------------------

Stave 3:

E|-----------------
B|-----------------
G|-----------------
D|--6--7--6--4--2--
A|--6--7--6--4--2--
E|--4--5--4--2--0--

http://www.guitartabcreator.com
Guitar Tab Creator is intended to store guitar tab created through the tool. It currently does not support in-line text editing. Any text you place in here will be lost. If you need to comment on your tab, please use the "Tab Notes" section located below.