Sound will begin in 5 seconds

Attachment (No Capo)

01234567891011121314151617181920212223
E
B
G
D
A
E
B
0 1 2 3 4 5 6 7 8 9 10 11 12 13 14 15 16 17 18 19 20 21 22 23
Song Science #1: How Pros Use 6 Chords to Write Hit Songs
(/) Slide Up  (\) Slide Down  (h) Hammer On  (p) Pull Off  (b) Bend (r) Release (v) Vibrato

Stave 1:

E|--------------------------------------------------------------------------
B|--------3-----------------3-----------------3-----------------3-----------
G|-----0-----0-----0-----0-----0-----0-----0-----0-----0-----0-----0-----0--
D|--------------------------------------------------------------------------
A|--2-----------2-----2-----------2-----3-----------3-----3-----------3-----
E|--------------------------------------------------------------------------

Stave 2:

E|--------------------------------------------------------------------------
B|--------3-----------------3-----------------3-----------------3-----------
G|-----0-----0-----0-----0-----0-----0-----0-----0-----0-----0-----0-----0--
D|--------------------------------------------------------------------------
A|--------------------------------------------------------------------------
E|--3-----------3-----3-----------3-----0-----------0-----0-----------0-----

Stave 3:

E|--------------------------------------------------------------------------
B|--------3-----------------3-----------------3-----------------3-----------
G|-----0-----0-----0-----0-----0-----0-----0-----0-----0-----0-----0-----0--
D|--------------------------------------------------------------------------
A|--2-----------2-----2-----------2-----0-----------0-----0-----------0-----
E|--------------------------------------------------------------------------

Stave 4:

E|--------------------------------------------------------------------------
B|--------3-----------------3-----------------3-----------------3-----------
G|-----0-----0-----0-----0-----0-----0-----0-----0-----0-----0-----0-----0--
D|--------------------------------------------------------------------------
A|--------------------------------------------------------------------------
E|--3-----------3-----3-----------3-----0-----------0-----0-----------0-----

Stave 5:

E|--------------------------------------------------------------------------
B|--------3-----------------3-----------------3-----------------3-----------
G|-----0-----0-----0-----0-----0-----0-----0-----0-----0-----0-----0-----0--
D|--------------------------------------------------------------------------
A|--2-----------2-----2-----------2-----3-----------3-----3-----------3-----
E|--------------------------------------------------------------------------

Stave 6:

E|--------------------------------------------------------------------------
B|--------3-----------------3-----------------3-----------------3-----------
G|-----0-----0-----0-----0-----0-----0-----0-----0-----0-----0-----0-----0--
D|--------------------------------------------------------------------------
A|--------------------------------------------------------------------------
E|--3-----------3-----3-----------3-----0-----------0-----0-----------0-----

Stave 7:

E|--------------------------------------------------------------------------
B|--------3-----------------3-----------------3-----------------3-----------
G|-----0-----0-----0-----0-----0-----0-----0-----0-----0-----0-----0-----0--
D|--------------------------------------------------------------------------
A|--2-----------2-----2-----------2-----3-----------3-----3-----------3-----
E|--------------------------------------------------------------------------

Stave 8:

E|--------------------------------------------------------------------------
B|--------3-----------------3-----------------3-----------------3-----------
G|-----0-----0-----0-----0-----0-----0-----0-----0-----0-----0-----0-----0--
D|--------------------------------------------------------------------------
A|--------------------------------------------------------------------------
E|--3-----------3-----3-----------3-----0-----------0-----0-----------0-----

Stave 9:

E|--------------------------------------------------------------------------
B|--------3-----------------3-----------------3-----------------3-----------
G|-----0-----0-----0-----0-----0-----0-----0-----0-----0-----0-----0-----0--
D|--------------------------------------------------------------------------
A|--2-----------2-----2-----------2-----0-----------0-----0-----------0-----
E|--------------------------------------------------------------------------

Stave 10:

E|--------------------------------------------------------------------------
B|--------3-----------------3-----------------3-----------------3-----------
G|-----0-----0-----0-----0-----0-----0-----0-----0-----0-----0-----0-----0--
D|--------------------------------------------------------------------------
A|--------------------------------------------------------------------------
E|--3-----------3-----3-----------3-----0-----------0-----0-----------0-----

Stave 11:

E|--------------------------------------------------------------------------
B|--------3-----------------3-----------------3-----------------3-----------
G|-----0-----0-----0-----0-----0-----0-----0-----0-----0-----0-----0-----0--
D|--------------------------------------------------------------------------
A|--2-----------2-----2-----------2-----3-----------3-----3-----------3-----
E|--------------------------------------------------------------------------

Stave 12:

E|--------------------------------------------------------------------------
B|--------3-----------------3-----------------3-----------------3-----------
G|-----0-----0-----0-----0-----0-----0-----0-----0-----0-----0-----0-----0--
D|--------------------------------------------------------------------------
A|--------------------------------------------------------------------------
E|--3-----------3-----3-----------3-----0-----------0-----0-----------0-----

Stave 13:

E|--------------------------------------------------------------------------
B|--------3-----------------3-----------------3-----------------3-----------
G|-----0-----0-----0-----0-----0-----0-----0-----0-----0-----0-----0-----0--
D|--------------------------------------------------------------------------
A|--2-----------2-----2-----------2-----3-----------3-----3-----------3-----
E|--------------------------------------------------------------------------

Stave 14:

E|--------------------------------------------------------------------------
B|--------3-----------------3-----------------3-----------------3-----------
G|-----0-----0-----0-----0-----0-----0-----0-----0-----0-----0-----0-----0--
D|--------------------------------------------------------------------------
A|--------------------------------------------------------------------------
E|--3-----------3-----3-----------3-----2-----------2-----2-----------2-----

Stave 15:

E|--------------------------------------------------------------------------
B|--------3-----------------3-----------------3-----------------3-----------
G|-----0-----0-----0-----0-----0-----0-----0-----0-----0-----0-----0-----0--
D|--------------------------------------------------------------------------
A|--2-----------2-----2-----------2-----3-----------3-----3-----------3-----
E|--------------------------------------------------------------------------

Stave 16:

E|--------------------------------------------------------------------------
B|--------3-----------------3-----------------3-----------------3-----------
G|-----0-----0-----0-----0-----0-----0-----0-----0-----0-----0-----0-----0--
D|--------------------------------------------------------------------------
A|--------------------------------------------------------------------------
E|--3-----------3-----3-----------3-----2-----------2-----0-----------0-----

Stave 17:

E|--------------------------------------------------------------------------
B|--------3-----------------3-----------------3-----------------3-----------
G|-----0-----0-----0-----0-----0-----0-----0-----0-----0-----0-----0-----0--
D|--------------------------------------------------------------------------
A|--2-----------2-----2-----------2-----0-----------0-----0-----------0-----
E|--------------------------------------------------------------------------

Stave 18:

E|--------------------------------------------------------------------------
B|--------3-----------------3-----------------3-----------------3-----------
G|-----0-----0-----0-----0-----0-----0-----0-----0-----0-----0-----0-----0--
D|--------------------------------------------------------------------------
A|--------------------------------------------------------------------------
E|--3-----------3-----3-----------3-----0-----------0-----0-----------0-----

Stave 19:

E|--------------------------------------------------------------------------
B|--------3-----------------3-----------------3-----------------3-----------
G|-----0-----0-----0-----0-----0-----0-----0-----0-----0-----0-----0-----0--
D|--------------------------------------------------------------------------
A|--2-----------2-----2-----------2-----0-----------0-----0-----------0-----
E|--------------------------------------------------------------------------

Stave 20:

E|--------------------------------------------------------------------------
B|--------3-----------------3-----------------3-----------------3-----------
G|-----0-----0-----0-----0-----0-----0-----0-----0-----0-----0-----0-----0--
D|--------------------------------------------------------------------------
A|--------------------------------------------------------------------------
E|--3-----------3-----3-----------3-----0-----------0-----0-----------0-----

Stave 21:

E|--------------------------------------------------------------------------
B|--------3-----------------3-----------------3-----------------3-----------
G|-----0-----0-----0-----0-----0-----0-----0-----0-----0-----0-----0-----0--
D|--------------------------------------------------------------------------
A|--2-----------2-----2-----------2-----3-----------3-----3-----------3-----
E|--------------------------------------------------------------------------

Stave 22:

E|--------------------------------------------------------------------------
B|--------3-----------------3-----------------3-----------------3-----------
G|-----0-----0-----0-----0-----0-----0-----0-----0-----0-----0-----0-----0--
D|--------------------------------------------------------------------------
A|--------------------------------------------------------------------------
E|--3-----------3-----3-----------3-----0-----------0-----0-----------0-----

Stave 23:

E|--------------------------------------------------------------------------
B|--------3-----------------3-----------------3-----------------3-----------
G|-----0-----0-----0-----0-----0-----0-----0-----0-----0-----0-----0-----0--
D|--------------------------------------------------------------------------
A|--2-----------2-----2-----------2-----3-----------3-----3-----------3-----
E|--------------------------------------------------------------------------

Stave 24:

E|--------------------------------------------------------------------------
B|--------3-----------------3-----------------3-----------------3-----------
G|-----0-----0-----0-----0-----0-----0-----0-----0-----0-----0-----0-----0--
D|--------------------------------------------------------------------------
A|--------------------------------------------------------------------------
E|--3-----------3-----3-----------3-----0-----------0-----0-----------0-----

Stave 25:

E|--------------------------------------------------------------------------
B|--------3-----------------3-----------------3-----------------3-----------
G|-----0-----0-----0-----0-----0-----0-----0-----0-----0-----0-----0-----0--
D|--------------------------------------------------------------------------
A|--2-----------2-----2-----------2-----3-----------3-----3-----------3-----
E|--------------------------------------------------------------------------

Stave 26:

E|--------------------------------------------------------------------------
B|--------3-----------------3-----------------3-----------------3-----------
G|-----0-----0-----0-----0-----0-----0-----0-----0-----0-----0-----0-----0--
D|--------------------------------------------------------------------------
A|--------------------------------------------------------------------------
E|--3-----------3-----3-----------3-----2-----------2-----0-----------0-----

Stave 27:

E|--------------------------------------------------------------------------
B|--------3-----------------3-----------------3-----------------3-----------
G|-----0-----0-----0-----0-----0-----0-----0-----0-----0-----0-----0-----0--
D|--------------------------------------------------------------------------
A|--2-----------2-----2-----------2-----3-----------3-----3-----------3-----
E|--------------------------------------------------------------------------

Stave 28:

E|--------------------------------------------------------------------------
B|--------3-----------------3-----------------3-----------------3-----------
G|-----0-----0-----0-----0-----0-----0-----0-----0-----0-----0-----0-----0--
D|--------------------------------------------------------------------------
A|--------------------------------------------------------------------------
E|--3-----------3-----3-----------3-----2-----------2-----0-----------0-----

Stave 29:

E|--------------------------------------------------------------------------
B|--------3-----------------3-----------------3-----------------3-----------
G|-----0-----0-----0-----0-----0-----0-----0-----0-----0-----0-----0-----0--
D|--------------------------------------------------------------------------
A|--2-----------2-----2-----------2-----0-----------0-----0-----------0-----
E|--------------------------------------------------------------------------

Stave 30:

E|--------------------------------------------------------------------------
B|--------3-----------------3-----------------3-----------------3-----------
G|-----0-----0-----0-----0-----0-----0-----0-----0-----0-----0-----0-----0--
D|--------------------------------------------------------------------------
A|--------------------------------------------------------------------------
E|--3-----------3-----3-----------3-----0-----------0-----0-----------0-----

Stave 31:

E|--------------------------------------------------------------------------
B|--------3-----------------3-----------------3-----------------3-----------
G|-----0-----0-----0-----0-----0-----0-----0-----0-----0-----0-----0-----0--
D|--------------------------------------------------------------------------
A|--2-----------2-----2-----------2-----0-----------0-----0-----------0-----
E|--------------------------------------------------------------------------

Stave 32:

E|--------------------------------------------------------------------------
B|--------3-----------------3-----------------3-----------------3-----------
G|-----0-----0-----0-----0-----0-----0-----0-----0-----0-----0-----0-----0--
D|--------------------------------------------------------------------------
A|--------------------------------------------------------------------------
E|--3-----------3-----3-----------3-----0-----------0-----0-----------0-----

Stave 33:

E|--------------------------------------------------------------------------
B|--------3-----------------3-----------------3-----------------3-----------
G|-----0-----0-----0-----0-----0-----0-----0-----0-----0-----0-----0-----0--
D|--------------------------------------------------------------------------
A|--2-----------2-----2-----------2-----0-----------0-----0-----------0-----
E|--------------------------------------------------------------------------

Stave 34:

E|--------------------------------------------------------------------------
B|--------3-----------------3-----------------3-----------------3-----------
G|-----0-----0-----0-----0-----0-----0-----0-----0-----0-----0-----0-----0--
D|--------------------------------------------------------------------------
A|--------------------------------------------------------------------------
E|--3-----------3-----3-----------3-----0-----------0-----0-----------0-----

Stave 35:

E|--------------
B|-----------3--
G|--------0-----
D|-----0--------
A|--2-----------
E|--------------

http://www.guitartabcreator.com
Guitar Tab Creator is intended to store guitar tab created through the tool. It currently does not support in-line text editing. Any text you place in here will be lost. If you need to comment on your tab, please use the "Tab Notes" section located below.