Sound will begin in 5 seconds

ScHoolboy Q - THat Part

Chords
01234567891011121314151617181920212223
E
B
G
D
A
E
B
0 1 2 3 4 5 6 7 8 9 10 11 12 13 14 15 16 17 18 19 20 21 22 23
(/) Slide Up  (\) Slide Down  (h) Hammer On  (p) Pull Off  (b) Bend (r) Release (v) Vibrato

Hook:

E|--------9-----------------------9--------------------------9-----------------------9-----------------
B|-----9-----7-----7-----------9-----7--7-----7-----------9-----7-----7--1--------9-----7--7-----------
G|--6-----------------5-----6--------------------5-----6--------------------1--6-----------------5-----
D|--7-----------6--------6--7--------------6--------6--7-----------6-----------7--------------6-----6--
A|--0-----------------------0-----------4--3-----------0-----------------------0-----------4--3--6-----
E|--------------------4--------------------------4-----------------4-----2-----------------------------

Post-Hook & Verses:

E|------12----------------
B|----------14------------
G|--13----------12--------
D|------------------------
A|------------------10/0--
E|--12----------11--------

http://www.guitartabcreator.com
Guitar Tab Creator is intended to store guitar tab created through the tool. It currently does not support in-line text editing. Any text you place in here will be lost. If you need to comment on your tab, please use the "Tab Notes" section located below.