Sound will begin in 5 seconds

Lord I Need You

01234567891011121314151617181920212223
E
B
G
D
A
E
B
0 1 2 3 4 5 6 7 8 9 10 11 12 13 14 15 16 17 18 19 20 21 22 23
(/) Slide Up  (\) Slide Down  (h) Hammer On  (p) Pull Off  (b) Bend (r) Release (v) Vibrato

[Intro] X2

E|--------------
B|--7--4--5--7--
G|--------------
D|--------------
A|--------------
E|--------------

[Verse 1]

E|-----------------------
B|--7--4--5--7-----------
G|--------------8--6--4--
D|-----------------------
A|-----------------------
E|-----------------------

[Bridge]

E|------------------------------------------------
B|--9--7--7------------9--9--7--11--12------------
G|-----------8--8--11-------------------9--11--8--
D|------------------------------------------------
A|------------------------------------------------
E|------------------------------------------------

Stave 4:

E|----------------
B|--9--7--11--12--
G|----------------
D|----------------
A|----------------
E|----------------

http://www.guitartabcreator.com
Guitar Tab Creator is intended to store guitar tab created through the tool. It currently does not support in-line text editing. Any text you place in here will be lost. If you need to comment on your tab, please use the "Tab Notes" section located below.