Sound will begin in 5 seconds

Lullaby For The Miserable

Chords
01234567891011121314151617181920212223
E
B
G
D
A
E
B
0 1 2 3 4 5 6 7 8 9 10 11 12 13 14 15 16 17 18 19 20 21 22 23
Song Science #1: How Pros Use 6 Chords to Write Hit Songs
(/) Slide Up  (\) Slide Down  (h) Hammer On  (p) Pull Off  (b) Bend (r) Release (v) Vibrato

Stave 1:

E|----------11------------------------------11----------------------------11-----------------------------
B|------14------14----------11----------14------14---------9----------14------14----------11---------11--
G|--11------------------13------13--11-----------------11-----11--11------------------13------13---------
D|------------------11------------------------------9-----------------------------11--------------9------
A|-------------------------------------------------------------------------------------------------------
E|-------------------------------------------------------------------------------------------------------

Stave 2:

E|-----------------
B|-----11--11--11--
G|-----11--11--11--
D|--8--------------
A|-----9---9---9---
E|-----------------

Stave 3:

E|---------------------------------9--------------------------
B|------------------9----------11-----12--11------------------
G|--11--11--10--11-----10--11-------------11--11--8--6--4--3--
D|------------------------------------------------------------
A|----------------------------------------9---9---6--4--2--1--
E|------------------------------------------------------------

Stave 4:

E|----------------------9---7------------------------------
B|--11--11--9---11--11--11--9--11--11--9---9---7--7--7--7--
G|--11--11--10--11--11---------11--11--10--10--8--6--6--6--
D|---------------------------------------------------9--8--
A|---------------------------------------------------------
E|---------------------------------------------------------

Stave 5:

E|--4--7--2--4--9---|--2--4--9---2--11--4--9---2--7--
B|--4--7--2--4--9---|--2--4--9---2--11--4--9---2--7--
G|--4--8--3--4--10--|--3--4--10--3--11--4--10--3--8--
D|--6--9--4--6--11--|--4--6--11--4--13--6--11--4--9--
A|--6--9--4--6--11--|--4--6--11--4--13--6--11--4--9--
E|-----7------------|--------------------------------

http://www.guitartabcreator.com
Guitar Tab Creator is intended to store guitar tab created through the tool. It currently does not support in-line text editing. Any text you place in here will be lost. If you need to comment on your tab, please use the "Tab Notes" section located below.