Sound will begin in 5 seconds

Horrible Things

Chords
01234567891011121314151617181920212223
E
B
G
D
A
E
B
0 1 2 3 4 5 6 7 8 9 10 11 12 13 14 15 16 17 18 19 20 21 22 23
Song Science #1: How Pros Use 6 Chords to Write Hit Songs
(/) Slide Up  (\) Slide Down  (h) Hammer On  (p) Pull Off  (b) Bend (r) Release (v) Vibrato

Stave 1:

E|----------16--------------------------14--------------------------12--------------------------11--
B|------14------14------14----------14------14------14----------12------12------12----------12------
G|--14--------------14----------14--------------14----------13--------------13----------13----------
D|--------------------------16--------------------------14--------------------------14--------------
A|--------------------------------------------------------------------------------------------------
E|--------------------------------------------------------------------------------------------------

Stave 2:

E|-----0--7-----0-----0--
B|-----9--9-----5-----7--
G|--9--------6-----8-----
D|-----------------------
A|-----------------------
E|-----------------------

Stave 3:

E|-----------------5--
B|--12--10--9--10--5--
G|-----------------5--
D|-----------------7--
A|-----------------7--
E|-----------------5--

Stave 4:

E|--16--14--12--|--0--0--0--
B|--14--14--12--|--5--8--9--
G|--14--14--13--|-----------
D|------16--14--|-----------
A|--------------|-----------
E|--------------|-----------

http://www.guitartabcreator.com
Guitar Tab Creator is intended to store guitar tab created through the tool. It currently does not support in-line text editing. Any text you place in here will be lost. If you need to comment on your tab, please use the "Tab Notes" section located below.