Sound will begin in 5 seconds

Vegetated lead guitar

Chords
01234567891011121314151617181920212223
E
B
G
D
A
E
B
0 1 2 3 4 5 6 7 8 9 10 11 12 13 14 15 16 17 18 19 20 21 22 23
(/) Slide Up  (\) Slide Down  (h) Hammer On  (p) Pull Off  (b) Bend (r) Release (v) Vibrato

Stave 1:

E|-----------
B|-----------
G|-----------
D|-----------
A|--7--7--7--
E|-----------

Stave 2:

E|----------------------------
B|----------------------------
G|-----7----------------7-----
D|--9--7--4-7--------9--7--7--
A|--9--5--4-7--------9--5--7--
E|--7-----2-5--------7-----5--

Stave 3:

E|-----------------------------------7--7--7--10--10--10--5--5--
B|--7--7--7--10--10--10--5--5--------7--7--7--10--10--10--5--5--
G|--------------------------------------------------------------
D|--------------------------------------------------------------
A|--------------------------------------------------------------
E|--------------------------------------------------------------

Stave 4:

E|------------------------------------
B|------------------------------------
G|------------------------------------
D|-------1h2--2/4\2--1----------------
A|--2h3-----------------3--2--2h3--2--
E|------------------------------------

Stave 5:

E|------------------------------------------------------------------------
B|------------------------------------------------------------------------
G|-------------------------7--7-----------4--4-------------4--4--7--7-----
D|--9--9--4--4-7--7--9--9--7--7--7--------4--4--4--4-7--7--4--4--7--7--7--
A|--9--9--4--4-7--7--9--9--5--5--7--------2--2--4--4-7--7--2--2--5--5--7--
E|--7--7--2--2-5--5--7--7--------5--------------2--2-5--5--------------5--

Stave 6:

E|-------------------------------------------------------------------------------------------------------
B|-------------------------------------------------------------------------------------------------------
G|--9--9--12--12--12--11--11--11----------------------------------7--7-----9-11--11--11--11--11--11--11--
D|--9--9--12--12--12--11--11--11--9--------9--9--4--4-7--7--9--9--7--7--7--9-11--11--11--11--11--11--11--
A|--7--7--10--10--10--9---9---9---9--------9--9--4--4-7--7--9--9--5--5--7--7-9---9---9---9---9---9---9---
E|--------------------------------7--------7--7--2--2-5--5--7--7--------5--------------------------------

Stave 7:

E|--
B|--
G|--
D|--
A|--
E|--

http://www.guitartabcreator.com
Guitar Tab Creator is intended to store guitar tab created through the tool. It currently does not support in-line text editing. Any text you place in here will be lost. If you need to comment on your tab, please use the "Tab Notes" section located below.