Sound will begin in 5 seconds

Vegetated Bass

01234567891011121314151617181920212223
E
B
G
D
A
E
B
0 1 2 3 4 5 6 7 8 9 10 11 12 13 14 15 16 17 18 19 20 21 22 23
(/) Slide Up  (\) Slide Down  (h) Hammer On  (p) Pull Off  (b) Bend (r) Release (v) Vibrato

Play 4x

G|-----------------
D|---0-------0-----
A|-2-----0-2-----0-
E|-----2-------2---

Left side 3x, then right side 1x. This is the part during the guitar riff

G|-------------------------------------------------------
D|-----------------------------0-------------------------
A|-2-2-2-------0-0-2-2-2---------------2-2-2-------0-0-2-
E|-------2-2-2-----------2-2-2---------------2-2-2-------

Play 4x

G|-----------------------------
D|-----------------------0-----
A|-2-2-2-------0---2-2-2-----0-
E|-------2-2-2-------------2---

Left side 2x, then right side 1x

G|---------------------------------------------------------------------
D|-2-2-5-5-5-4-4-4---0---------------------------0-----2h4-4-4-4-4-4-4-
A|-----------------2---------2-2-2-------0-2-2-2-----0-----------------
E|---------------------------------2-2-2-----------2-------------------

Left side 2x, then right side 1x

G|---------------------------------------------------------------------------------------------
D|---0-------0-------0-----------0-------0-----2-2-2-2-2-------------0-----------------0-------
A|-2-----0-2-----0-2-----0-2---2-----0-2-----0-----------3-3-3-3-3-2-----0-----------2-----0-2-
E|-----2-------2-------2-----------2-------2---------------------------2---2-2-2-2-2-----2-----

http://www.guitartabcreator.com
Guitar Tab Creator is intended to store guitar tab created through the tool. It currently does not support in-line text editing. Any text you place in here will be lost. If you need to comment on your tab, please use the "Tab Notes" section located below.