Sound will begin in 5 seconds

Trash Island

01234567891011121314151617181920212223
E
B
G
D
A
E
B
0 1 2 3 4 5 6 7 8 9 10 11 12 13 14 15 16 17 18 19 20 21 22 23
(/) Slide Up  (\) Slide Down  (h) Hammer On  (p) Pull Off  (b) Bend (r) Release (v) Vibrato

Intro. Also played in the middle and at the end

G|--5--5--5--3--3--3--------------------
D|--------------------5--5--5--5p3------
A|----------------------------------6v--
E|--------------------------------------

Left side 2x, right 1x, then left 1x. Play the G note in parentheses instead of the D# (6) on the 2nd time left side

G|--------------------------------------------------------------------------
D|--------------------------------------------------------------------------
A|--3-------3-------3-------3--6-----------------2h5-----2h5-----2h5--2--5--
E|-----3h6-----3h6-----3h6--------3-----------3-------3-------3-------------

Left side: "Our ocean's not a dump, dump, dump..." Right side: "So whatcha gonna doooo?"

G|--------------------------------------------------------------------
D|--------------------------------------------------------------------
A|--------3--3h5p3--------------------------------3--3h5p3-----3h4h5--
E|--3--6------------6--5--------------------3--6------------6---------

http://www.guitartabcreator.com
Guitar Tab Creator is intended to store guitar tab created through the tool. It currently does not support in-line text editing. Any text you place in here will be lost. If you need to comment on your tab, please use the "Tab Notes" section located below.