Sound will begin in 5 seconds

Soaking Up Sunshine

01234567891011121314151617181920212223
E
B
G
D
A
E
B
0 1 2 3 4 5 6 7 8 9 10 11 12 13 14 15 16 17 18 19 20 21 22 23
(/) Slide Up  (\) Slide Down  (h) Hammer On  (p) Pull Off  (b) Bend (r) Release (v) Vibrato

Easy version of the verse. Play 4 times then go to chorus

G|-----------------------------------------------------------------------------
D|-----------------------------------------------------------------------------
A|--------------------5-----5-----5--5-----7-----7-----7-----5-----5-----5--5--
E|--5-----5-----5--------------------------------------------------------------

Easy version of the chorus. Let the open E note ring out during "I'm soaking up sunshine," and let the open D note ring out during "Whoa-oh-oh-oh." Play 3 times then return to verse

G|-----------------------------------------------------------------------------
D|--------------------------------------------------------------------0--------
A|-----------------------------------------------------------------------------
E|--0--------------------------------------------------------------------------

Less easy version of the verse. Play 4 times then go to chorus

G|-------------------------------4-----------------
D|----------------4--7--4-----6-----6-----4--7--4--
A|-----4--7--4h5-----------7-----------5-----------
E|--5----------------------------------------------

Less easy version of the chorus. Get some slap bass action here if you can. Play 3 times then return to verse

G|----------------------7-----7-----7--
D|-----2-----2-------------------------
A|-----------------2/5-----5-----5-----
E|--0-----0----------------------------

http://www.guitartabcreator.com
Guitar Tab Creator is intended to store guitar tab created through the tool. It currently does not support in-line text editing. Any text you place in here will be lost. If you need to comment on your tab, please use the "Tab Notes" section located below.