Sound will begin in 5 seconds

Night Hike / Skit Night / Fun night

01234567891011121314151617181920212223
E
B
G
D
A
E
B
0 1 2 3 4 5 6 7 8 9 10 11 12 13 14 15 16 17 18 19 20 21 22 23
(/) Slide Up  (\) Slide Down  (h) Hammer On  (p) Pull Off  (b) Bend (r) Release (v) Vibrato

Easy version of the verse. Play twice. If the A# (6th fret) note is too much of a pain to slide up to, replace it with the A# note on the A string (1st fret)

G|----------------------------------------------
D|----------------------------------------------
A|----------------------------------------------
E|--3--3--1--3--3/6--3--1--3-----1--1--0--1--3--

Easy version of the chorus. Play the left side three times then the right side once. You could also try replacing all the D notes on the 5th fret of the A string with open D notes on the D string

G|------------------------------------------------------------------------------
D|------------------------------------------------------------------------------
A|--3--3--5--5---------------------------3--3--3--3--3--3-----5--5--5--5--5--5--
E|--------------3-----1h3--3p1--------------------------------------------------

A little spicy version of the verse. Play left side twice but on the second time replace " " with ' '

G|-----------------------------------------------------------------------------------------------
D|-----------------------------------------------------------------------------------------3-----
A|-------------1-----3/5--3\1-----------------------1--3--1--3/5--3\1--------1--3--1--3/5-----5--
E|--3--3--1h3-----3------------3--1--1--0--1--3--------------------------------------------------

Spicy chorus! Play the left side three times then the right side once

G|----------------------------------------------------------------------------------------
D|-------------3--------------------------------------------------------------------------
A|--3--3--3/5-----5---------------1--------------3--3--3--3--3--3-----3/5--5--5--5--5--5--
E|-------------------3-----3\1h3-----3----------------------------------------------------

Alternate spicy chorus! Play the spicy chorus above two times and then do this. (Play the part that is on the upper left twice, then the part below. Ignore the upper right.)

G|----------------------------------3h5--5--5--5--3--5--5-----5/7--7--7/9--9/12--12--
D|-------------3---------------3h5---------------------------------------------------
A|--3--3--3/5-----5-------3h5--------------------------------------------------------
E|-------------------3h6-------------------------------------------------------------

http://www.guitartabcreator.com
Guitar Tab Creator is intended to store guitar tab created through the tool. It currently does not support in-line text editing. Any text you place in here will be lost. If you need to comment on your tab, please use the "Tab Notes" section located below.