Sound will begin in 5 seconds

The FBI

01234567891011121314151617181920212223
E
B
G
D
A
E
B
0 1 2 3 4 5 6 7 8 9 10 11 12 13 14 15 16 17 18 19 20 21 22 23
(/) Slide Up  (\) Slide Down  (h) Hammer On  (p) Pull Off  (b) Bend (r) Release (v) Vibrato

Part one of Ibis's James Bond riff intro. There wasn't enough room to write both parts as one, so play part two immediately after

G|--------------------------------------------------
D|--------------------------------------------------
A|--------------------------------------------------
E|--5-----6-----7-----6-----5-----6-----7-----6-----

Part two. After rapidly playing the five A (12) notes, slide down to the D (5) note to begin the first part of the chorus. You don't have to do this but it sounds fuego

G|----------------------------------------------------------------------------------
D|----------------------------------------------------------------------------------
A|--5-----8-----8/10-----8\5--------5-----8-----8/10--8--10--10/12--12--12--12--12--
E|----------------------------------------------------------------------------------

Chorus part one. Play the left side three times and on the fourth time play the right side. If you aren't feeling all the hammer ons, just play the left side four times without the 3h5p3 at the end

G|--------------------------------------------------------------------
D|--------------3--3--5--3h5p3----------------------------------------
A|--5-----5--5---------------------------5-----5--5--3p2h3--4p3h4--5--
E|--------------------------------------------------------------------

Chorus part two. Play part one 4x during the rap verses and 4x during the "The FBI!" part, then do part two for "Fungus (fungus)..."

G|---------------------------------------------------------------------------
D|---------------------------------------------------------------------------
A|--------------------5--5----------5-----------------------5--5----------5--
E|--1--1-----3--3--------------1/3-----3--1--1-----3--3--------------1/3-----

http://www.guitartabcreator.com
Guitar Tab Creator is intended to store guitar tab created through the tool. It currently does not support in-line text editing. Any text you place in here will be lost. If you need to comment on your tab, please use the "Tab Notes" section located below.