Sound will begin in 5 seconds

Evil Waste

01234567891011121314151617181920212223
E
B
G
D
A
E
B
0 1 2 3 4 5 6 7 8 9 10 11 12 13 14 15 16 17 18 19 20 21 22 23
(/) Slide Up  (\) Slide Down  (h) Hammer On  (p) Pull Off  (b) Bend (r) Release (v) Vibrato

Verse. Play left side 3x, the right side 1x, then the left side 3x

G|---------------------------------------------------------------------------------------------
D|---------------------------------------------------------------------------------------------
A|-----------7-----7-----7--7--7--7------------------------------------------5--7--7--7--7--7--
E|--7--7--7-----------------------------------7--------------2--5--2--5/6/7--------------------

"You must reduce it, reuse it, recycle your waste..." Play left side 2x, then right side. Transitions right into verse

G|---------------------------------------------------------------------------------------------------
D|---------------------------------------------------------------------------------------------------
A|----------------------7--------------------------7--7h9-----9--7\5---------------7--7--7--7--7--7--
E|--7--10-----7--10--------10--7--10--------7--10---------------------7p5--5h7--7--------------------



G|--
D|--
A|--
E|--



G|--
D|--
A|--
E|--

http://www.guitartabcreator.com
Guitar Tab Creator is intended to store guitar tab created through the tool. It currently does not support in-line text editing. Any text you place in here will be lost. If you need to comment on your tab, please use the "Tab Notes" section located below.