Sound will begin in 5 seconds

Opera 2 Vitas Tablatures

Chords
01234567891011121314151617181920212223
E
B
G
D
A
E
B
0 1 2 3 4 5 6 7 8 9 10 11 12 13 14 15 16 17 18 19 20 21 22 23
(/) Slide Up  (\) Slide Down  (h) Hammer On  (p) Pull Off  (b) Bend (r) Release (v) Vibrato

Stave 1:

E|-1-------1------------------------------------------------------------------------------------
B|-1-2-2-1-1-2--------------9-8-11----11-11-8-9----9----9-9-14v-\13/14v-8-8-8-8-8-8-13-11-14-13-
G|-1-------1-3---------------------------------------10-----------------------------------------
D|-3-------3-------------10--------10-----------10----------------------------------------------
A|----------------------------------------------------------------------------------------------
E|-------------1-2-3-4-5------------------------------------------------------------------------

Stave 2:

E|---------------------------------------------------------------13v-v-v-------------------------
B|----8-8-8-9-11-8------9-8-9-11-8-8-11-8-9----9-8-9-14-13-12-13---------11-13-11-14-11----14-13-
G|--------------------------------------------------------------------------------------12-------
D|-10----------------10---------------------10---------------------------------------------------
A|-----------------------------------------------------------------------------------------------
E|-----------------1-----------------------------------------------------------------------------

Stave 3:

E|-----------------------------------------------------------------------------------------------
B|-14-13----8-8-8-8-9-11-8-13/20\19/20-18-16\15/16\15-13/20\19/20-18-16\15/16\15-----------------
G|-----------------------------------------------------------------------------------------------
D|-------10--------------------------------------------------------------------------------------
A|-----------------------------------------------------------------------------------------------
E|-------------------------------------------------------------------------------1-2-3-4-5-6-7-8-

Stave 4:

E|-----------------------------------------------------------------------------------------------
B|----9-8-11----11-11-8-9----9----9-9-14v-\13/14v-11-13-11-14-11-14-13-14-13----8-8-8-9-11-8-----
G|-----------------------------10----------------------------------------------------------------
D|-10--------10-----------10-------------------------------------------------10------------------
A|-----------------------------------------------------------------------------------------------
E|-------------------------------------------------------------------------------------------1-1-

Stave 5:

E|-----------------------------------------------13v-v-v------------------------------------------
B|----9-8-9-11-8-8-8-11-8-9----9----9-9-13\12/13---------11-13-11-14-11-11-14-13-14-11-8-8-8-9-11-
G|-------------------------------10---------------------------------------------------------------
D|-10-----------------------10--------------------------------------------------------------------
A|------------------------------------------------------------------------------------------------
E|------------------------------------------------------------------------------------------------

Stave 6:

E|-13/20\19/20-18-16\15/16\15-13/20\19/20-18-16\15/16-15-1-----1-------
B|-------------------------------------------------------1-2-2-1-2-2-1-
G|-------------------------------------------------------1-----1-------
D|-------------------------------------------------------3-----3-------
A|---------------------------------------------------------------------
E|---------------------------------------------------------------------

Stave 7:

E|-14/21\20/21-19-17\16/17\16-14/21\20/21-19-17\16/17\16-----------
B|-----------------------------------------------------------------
G|-----------------------------------------------------------------
D|-----------------------------------------------------------------
A|-----------------------------------------------------------------
E|-------------------------------------------------------1-2-3-4-5-

http://www.guitartabcreator.com
Guitar Tab Creator is intended to store guitar tab created through the tool. It currently does not support in-line text editing. Any text you place in here will be lost. If you need to comment on your tab, please use the "Tab Notes" section located below.