Sound will begin in 5 seconds

helpless intros

Chords
01234567891011121314151617181920212223
E
B
G
D
A
E
B
0 1 2 3 4 5 6 7 8 9 10 11 12 13 14 15 16 17 18 19 20 21 22 23
Song Science #1: How Pros Use 6 Chords to Write Hit Songs
(/) Slide Up  (\) Slide Down  (h) Hammer On  (p) Pull Off  (b) Bend (r) Release (v) Vibrato

Stave 1:

E|---------------------------------------------------------
B|---------------------------------------------------------
G|--5--5--5--5--13--13--13-----5--5--5--5--15--15--15--15--
D|---------------------------------------------------------
A|--3--3--3--3--11--11--11-----3--3--3--3--13--13--13--13--
E|---------------------------------------------------------

Stave 2:

E|-------------------------------------------------
B|-------------------------------------------------
G|-------------------------------------------------
D|-----------------------------------------12--10--
A|--3--3--3--3--11--10--8--3--3--3--3--13----------
E|-------------------------------------------------

http://www.guitartabcreator.com
Guitar Tab Creator is intended to store guitar tab created through the tool. It currently does not support in-line text editing. Any text you place in here will be lost. If you need to comment on your tab, please use the "Tab Notes" section located below.