Fiverr Tab

Chords

01234567891011121314151617181920212223
E
B
G
D
A
E
B
0 1 2 3 4 5 6 7 8 9 10 11 12 13 14 15 16 17 18 19 20 21 22 23
(/) Slide Up  (\) Slide Down  (h) Hammer On  (p) Pull Off  (b) Bend (r) Release (v) Vibrato

Stave 1:

E|---------------------------------------------------------------------------------------------------------------------------------------
B|----------------------------------------------------------------------12------12------12------12--15--15b17--12v-----------------------
G|--14b16--14b16--16r14p12--12v------------12--12------14b16-----12-----12------12--14------14-------------------------14b16r14--12v-----
D|----------------------------------12/14----------14------------12b14------14-----------------------------------------------------------
A|---------------------------------------------------------------------------------------------------------------------------------------
E|---------------------------------------------------------------------------------------------------------------------------------------

Stave 2:

E|--------------------------------------------------------------------------------------
B|--------------------------------------------------------------------------------------
G|---------12------14b16--12--12-----12---------12--------------------------------------
D|--12/14------14-------------12h14--12--12-----12-----12-----12--12-----12-------------
A|---------------------------------------12h14---------12h14--12--12h14--12----------12\
E|---------------------------------------------------------------------------15--12--12-

Stave 3:

E|------------------------------------------
B|-----3--------10-----------12-----12--12--
G|-----4--------11-----------12-----12--12--
D|-----2--------9------------10-----10--10--
A|-----3--------10-----------12-----12--12--
E|------------------------------------------

Stave 4:

E|-------------------------------------------------------------
B|--12--------10-----7-----10--------12-----10-----8-----8--8--
G|--12--------11-----7-----11--------12-----11-----9-----9--9--
D|--10--------9------5-----9---------10-----9------7-----7--7--
A|--12--------10-----7-----10--------12-----10-----8-----8--8--
E|-------------------------------------------------------------

							http://www.guitartabcreator.com
Instruments
{"strings":[[[".",".",".",".",".",".",".",".",".",".",".",".",".","_",".",".",".",".",".",".",".",".",".","_",".",".",".",".",".",".",".",".",".",".",".",".",".",".",".",".","_",".",".",".",".",".",".",".","_"],[".",".",".",".",".",".",".",".",".",".",".",".",".","_",".",".",".",".",".",".",".",".",".","_",".",".",".",12,".",12,".",12,".",12,15,15,"b",17,12,"v","_",".",".",".",".",".",".",".","_"],[14,"b",16,14,"b",16,16,"r",14,"p",12,12,"v","_",".",".",".",12,12,".",14,"b",16,"_",12,".",".",12,".",12,14,".",14,".",".",".",".",".",".",".","_",14,"b",16,"r",14,12,"v","_"],[".",".",".",".",".",".",".",".",".",".",".",".",".","_",12,"/",14,".",".",14,".",".",".","_",12,"b",14,".",14,".",".",".",".",".",".",".",".",".",".",".","_",".",".",".",".",".",".",".","_"],[".",".",".",".",".",".",".",".",".",".",".",".",".","_",".",".",".",".",".",".",".",".",".","_",".",".",".",".",".",".",".",".",".",".",".",".",".",".",".",".","_",".",".",".",".",".",".",".","_"],[".",".",".",".",".",".",".",".",".",".",".",".",".","_",".",".",".",".",".",".",".",".",".","_",".",".",".",".",".",".",".",".",".",".",".",".",".",".",".",".","_",".",".",".",".",".",".",".","_"]],[[".",".",".",".",".",".",".",".",".",".",".",".",".",".",".",".",".","_",".",".",".",".",".",".",".",".",".",".",".","."],[".",".",".",".",".",".",".",".",".",".",".",".",".",".",".",".",".","_",".",".",".",".",".",".",".",".",".",".",".","."],[".",".",".",12,".",14,"b",16,12,12,".",".",12,".",".",".",12,"_",".",".",".",".",".",".",".",".",".",".",".","."],[12,"/",14,".",14,".",".",".",".",12,"h",14,12,12,".",".",12,"_",12,".",".",12,12,".",".",12,".",".",".","."],[".",".",".",".",".",".",".",".",".",".",".",".",".",12,"h",14,".","_",12,"h",14,12,12,"h",14,12,".",".",12,"\\"],[".",".",".",".",".",".",".",".",".",".",".",".",".",".",".",".",".","_",".",".",".",".",".",".",".",".",15,12,12,"."]],[["_",".","_","_",".","_","_","_",".","_",".","."],["_",3,"_","_",10,"_","_","_",12,"_",12,12],["_",4,"_","_",11,"_","_","_",12,"_",12,12],["_",2,"_","_",9,"_","_","_",10,"_",10,10],["_",3,"_","_",10,"_","_","_",12,"_",12,12],["_",".","_","_",".","_","_","_",".","_",".","."]],[[".","_","_",".","_",".","_",".","_","_",".","_",".","_","_","_",".","."],[12,"_","_",10,"_",7,"_",10,"_","_",12,"_",10,"_",8,"_",8,8],[12,"_","_",11,"_",7,"_",11,"_","_",12,"_",11,"_",9,"_",9,9],[10,"_","_",9,"_",5,"_",9,"_","_",10,"_",9,"_",7,"_",7,7],[12,"_","_",10,"_",7,"_",10,"_","_",12,"_",10,"_",8,"_",8,8],[".","_","_",".","_",".","_",".","_","_",".","_",".","_","_","_",".","."]]],"numberofstrings":6,"notes":["E","B","G","D","A","E","B"],"capo":0,"stringnotes":["E4","B3","G3","D3","A2","E2"],"comments":["Stave 1:","Stave 2:","Stave 3:","Stave 4:"],"timing":[[null,null,null,null,null,null,null,null,null,null,null,null,null,null,null,null,null,null,null,null,null,null,null,null,null,null,null,null,null,null,null,null,null,null,null,null,null,null,null,null,null,null,null,null,null,null,null],[null,null,null,null,null,null,null,null,null,null,null,null,null,null,null,null,null,null,null,null,null,null,null,null,null,null,null,null,null],[null,null,null,null,null,null,null,null,null,null,null,null],[null,null,null,null,null,null,null,null,null,null,null,null,null,null,null,null,null,null]],"timingvisible":false,"tabcounter":17,"stave":3,"totalstaves":4,"instrument":"6guitar","selectedtuning":"6_standard","version":"13"}

Member for

4 years 4 months
Submitted by sgolds88 on Mon, 2020-06-29 13:20