Sound will begin in 5 seconds

Elliot Smith - The Biggest Lie (Live Vocal Break)

Chords
01234567891011121314151617181920212223
E
B
G
D
A
E
B
0 1 2 3 4 5 6 7 8 9 10 11 12 13 14 15 16 17 18 19 20 21 22 23
(/) Slide Up  (\) Slide Down  (h) Hammer On  (p) Pull Off  (b) Bend (r) Release (v) Vibrato

This is the vocal break/solo that Elliott Smith plays in the video (https://www.youtube.com/watch?v=7jNrFMdPDk8). Its helpful to learn if you are only playing with one guitar. I did the best I could to make this tab by ear but there are a few imperfections as Elliott does a lot of improvisation. Whenever you see a chord in the tab you have to listen to the video to hear the strumming pattern (he usually plays the base note between strums).

E|--------------------------------------------------------------------------------------0-------------------------3-----3-7-----3-----------0-------------0--0----0--0----0--0----0----0-----0--0h2--0--0-----
B|-----------------------------0--------------------------------------------------0--0--1-----------0h1--------0--0-----0-0-----0-----------1-----3--3b---1--1h0--1--1h0--0--0----0----1-----1--1-1--0--0-----
G|-----------------------0-----------------------------0-----0-----------------0-----0--0-----2----------2-----0--0-----0-7-----0-----------0-----2--2----0--0----0--0----1--1h2--2h1--0-----2--2-2--2--0-----
D|-----0-----0-----0--------0--------0-----0-----0-----------------2-----2-----2-----2--2--------0----------0-----0-----0-5-----2-----------2-----0--0----2--2----2--2----2--2----2----2-----0--0----0--0-----
A|-----------------------------------------------------------------------------------2--3-------------------------2-----2-------2--0--2--3--3-----x--x------3--3----3--3----2--2----2----3-----x----------2-----
E|--3-----3-----3-----3-----------3-----3-----3-----3-----3-----0-----0-----0--------0-----2----------3-----------3--3----------0-----------------2--2--------------------0--0----0-------2-------------3-----

Stave 2:

E|--
B|--
G|--
D|--
A|--
E|--

Stave 3:

E|-----------------------------
B|-----------------------------
G|-----------------------------
D|-----------------------------
A|-----------------------------
E|--5-----------2--------------

http://www.guitartabcreator.com
Guitar Tab Creator is intended to store guitar tab created through the tool. It currently does not support in-line text editing. Any text you place in here will be lost. If you need to comment on your tab, please use the "Tab Notes" section located below.