El Paso City

Chords

01234567891011121314151617181920212223
E
B
G
D
A
E
B
0 1 2 3 4 5 6 7 8 9 10 11 12 13 14 15 16 17 18 19 20 21 22 23
(/) Slide Up  (\) Slide Down  (h) Hammer On  (p) Pull Off  (b) Bend (r) Release (v) Vibrato

Stave 1:

E|--------------3--1--0--0h1--0-----0----------------------------------0--1--3--5--7--8--7--5--3--1--0-----0-------------------------------------
B|--------0--3-------------------3-----1----------------------0--1--3-----------------------------------3-----1----------------------------------
G|--0--0----------------------------------------0h2-----0--2-----------------------------------------------------------2-----0-----0h2--0--------
D|---------------------------------------------------3--------------------------------------------------------------------3----------------3--2--
A|-----------------------------------------------------------------------------------------------------------------------------------------------
E|-----------------------------------------------------------------------------------------------------------------------------------------------

Stave 2:

E|------------------------------------------------------------------0--1--3--3--3--------------------0--1p0/3--3--1--0-----------------
B|----------------------------------------------------------------------------------------------------------------------3--1-----------
G|------------------------------0--0--0-----------------------------0--2--4--4--4---------------------------------------------2-----0--
D|--\------------------0--2--3-----------3--2------------------------------------------------------------------------------------3-----
A|------------2--2--3------------------------------------------------------------------------------------------------------------------
E|-------------------------------------------------------------------------------------------------------------------------------------

Stave 3:

E|--0--1--3--5--7h8--7--5--7--3--1--0-----0--------------------------------------1--0--1--3--5-----------------------------------------3--1--0-----------
B|-------------------------------------3-----1-----------------------------------------------------------------------------------0--3-----------3--1-----
G|----------------------------------------------------------2-----0--------------------------------------2-----0-----------0--0-----------------------2--
D|-------------------------------------------------------------3--------------------------------------------3--------------------------------------------
A|-------------------------------------------------------------------------------------------------------------------------------------------------------
E|-------------------------------------------------------------------------------------------------------------------------------------------------------

Stave 4:

E|-----------------------3--1--3--5--8-----------1--0--1--3--5-----------------------------------------0--1--0-----------------------3--1--3--5--8--------
B|--------------------------------------------------------------------------------------------0--1--3-----------3--1--0-----------------------------------
G|--0-----------------------------------------------------------------------------------0--2-----------------------------2--------------------------------
D|--------------------------------------------------------------------------2--0--2--3--------------------------------------------------------------------
A|--------------------------------------------------------------------------------------------------------------------------------------------------------
E|--------------------------------------------------------------------------------------------------------------------------------------------------------

Stave 5:

E|--1--0--1--3--5-----------
B|--------------------------
G|--------------------------
D|--------------------------
A|--------------------------
E|--------------------------

							http://www.guitartabcreator.com
Instruments
{"strings":[[[".",".",".",".",3,1,0,0,"h",1,0,".",0,".","_","_",".",".",".",".",".",".",".",".",".",0,1,3,5,7,8,7,5,3,1,0,".",0,".","_","_",".",".",".","_",".",".",".",".",".","."],[".",".",0,3,".",".",".",".",".",".",".",3,".",1,"_","_",".",".",".",".",".",".",0,1,3,".",".",".",".",".",".",".",".",".",".",".",3,".",1,"_","_",".",".",".","_",".",".",".",".",".","."],[0,0,".",".",".",".",".",".",".",".",".",".",".",".","_","_",0,"h",2,".",0,2,".",".",".",".",".",".",".",".",".",".",".",".",".",".",".",".",".","_","_",2,".",0,"_",0,"h",2,0,".","."],[".",".",".",".",".",".",".",".",".",".",".",".",".",".","_","_",".",".",".",3,".",".",".",".",".",".",".",".",".",".",".",".",".",".",".",".",".",".",".","_","_",".",3,".","_",".",".",".",".",3,2],[".",".",".",".",".",".",".",".",".",".",".",".",".",".","_","_",".",".",".",".",".",".",".",".",".",".",".",".",".",".",".",".",".",".",".",".",".",".",".","_","_",".",".",".","_",".",".",".",".",".","."],[".",".",".",".",".",".",".",".",".",".",".",".",".",".","_","_",".",".",".",".",".",".",".",".",".",".",".",".",".",".",".",".",".",".",".",".",".",".",".","_","_",".",".",".","_",".",".",".",".",".","."]],[[".","_","_","_",".",".",".",".",".",".",".",".",".",".",".","_","_","_","_",".",".",".",0,1,3,3,3,"_","_","_","_",".",".",0,1,"p",0,"/",3,3,1,0,".",".",".",".","."],[".","_","_","_",".",".",".",".",".",".",".",".",".",".",".","_","_","_","_",".",".",".",".",".",".",".",".","_","_","_","_",".",".",".",".",".",".",".",".",".",".",".",3,1,".",".","."],[".","_","_","_",".",".",".",".",".",".",0,0,0,".",".","_","_","_","_",".",".",".",0,2,4,4,4,"_","_","_","_",".",".",".",".",".",".",".",".",".",".",".",".",".",2,".",0],["\\","_","_","_",".",".",".",0,2,3,".",".",".",3,2,"_","_","_","_",".",".",".",".",".",".",".",".","_","_","_","_",".",".",".",".",".",".",".",".",".",".",".",".",".",".",3,"."],[".","_","_","_",2,2,3,".",".",".",".",".",".",".",".","_","_","_","_",".",".",".",".",".",".",".",".","_","_","_","_",".",".",".",".",".",".",".",".",".",".",".",".",".",".",".","."],[".","_","_","_",".",".",".",".",".",".",".",".",".",".",".","_","_","_","_",".",".",".",".",".",".",".",".","_","_","_","_",".",".",".",".",".",".",".",".",".",".",".",".",".",".",".","."]],[[0,1,3,5,7,"h",8,7,5,7,3,1,0,".",0,".","_","_","_","_",".",".",".","_","_","_","_",1,0,1,3,5,"_","_","_",".",".",".","_","_","_",".",".",".",".",3,1,0,".",".","."],[".",".",".",".",".",".",".",".",".",".",".",".",".",3,".",1,"_","_","_","_",".",".",".","_","_","_","_",".",".",".",".",".","_","_","_",".",".",".","_","_","_",".",".",0,3,".",".",".",3,1,"."],[".",".",".",".",".",".",".",".",".",".",".",".",".",".",".",".","_","_","_","_",2,".",0,"_","_","_","_",".",".",".",".",".","_","_","_",2,".",0,"_","_","_",0,0,".",".",".",".",".",".",".",2],[".",".",".",".",".",".",".",".",".",".",".",".",".",".",".",".","_","_","_","_",".",3,".","_","_","_","_",".",".",".",".",".","_","_","_",".",3,".","_","_","_",".",".",".",".",".",".",".",".",".","."],[".",".",".",".",".",".",".",".",".",".",".",".",".",".",".",".","_","_","_","_",".",".",".","_","_","_","_",".",".",".",".",".","_","_","_",".",".",".","_","_","_",".",".",".",".",".",".",".",".",".","."],[".",".",".",".",".",".",".",".",".",".",".",".",".",".",".",".","_","_","_","_",".",".",".","_","_","_","_",".",".",".",".",".","_","_","_",".",".",".","_","_","_",".",".",".",".",".",".",".",".",".","."]],[[".","_","_","_","_","_","_",3,1,3,5,8,"_","_","_",1,0,1,3,5,".","_","_","_",".",".",".",".",".",".",".",".",".",0,1,0,".",".",".",".","_","_","_",3,1,3,5,8,"_","_"],[".","_","_","_","_","_","_",".",".",".",".",".","_","_","_",".",".",".",".",".",".","_","_","_",".",".",".",".",".",".",0,1,3,".",".",".",3,1,0,".","_","_","_",".",".",".",".",".","_","_"],[0,"_","_","_","_","_","_",".",".",".",".",".","_","_","_",".",".",".",".",".",".","_","_","_",".",".",".",".",0,2,".",".",".",".",".",".",".",".",".",2,"_","_","_",".",".",".",".",".","_","_"],[".","_","_","_","_","_","_",".",".",".",".",".","_","_","_",".",".",".",".",".",".","_","_","_",2,0,2,3,".",".",".",".",".",".",".",".",".",".",".",".","_","_","_",".",".",".",".",".","_","_"],[".","_","_","_","_","_","_",".",".",".",".",".","_","_","_",".",".",".",".",".",".","_","_","_",".",".",".",".",".",".",".",".",".",".",".",".",".",".",".",".","_","_","_",".",".",".",".",".","_","_"],[".","_","_","_","_","_","_",".",".",".",".",".","_","_","_",".",".",".",".",".",".","_","_","_",".",".",".",".",".",".",".",".",".",".",".",".",".",".",".",".","_","_","_",".",".",".",".",".","_","_"]],[[1,0,1,3,5,"_","_","_"],[".",".",".",".",".","_","_","_"],[".",".",".",".",".","_","_","_"],[".",".",".",".",".","_","_","_"],[".",".",".",".",".","_","_","_"],[".",".",".",".",".","_","_","_"]]],"numberofstrings":6,"notes":["E","B","G","D","A","E","B"],"capo":"0","stringnotes":["E4","B3","G3","D3","A2","E2"],"comments":["Stave 1:","Stave 2:","Stave 3:","Stave 4:","Stave 5:"],"timing":[["W","W","W","W","W","W","W","W",null,"W","W","W","W","W",null,null,"W","W","W","W","W","W","W","W","W","W","W","W","W","W","W","W","W","W","W","W","W","W","W",null,null,"W","W","W","W","W",null,"W","W","W","W"],["W",null,"W","W",null,null,null,"W","W","W","W","W","W","W","W","W","W","W","W",null,null,null,"W","W","W","W","W","W","W","W",null,null,"W","W","W","W","W","W","W","W","W","W","W","W","W","W",null,"W"],["W","W","W","W","W","W","W","W","W","W","W","W","W","W","W","W",null,null,null,null,"W","W","W",null,null,null,null,"W","W","W","W","W","W","W","W","W","W","W","W","W",null,"W","W","W","W","W","W","W","W","W","W"],["W",null,null,null,"W","W","W","W","W","W","W","W",null,null,null,null,null,null,null,null,null,null,null,null,"W","W","W","W","W","W","W","W","W","W","W","W","W","W","W","W",null,null,null,"W","W","W","W","W"],["W","W","W","W","W"]],"timingvisible":false,"tabcounter":8,"stave":4,"totalstaves":5,"instrument":"6guitar","selectedtuning":"6_standard","version":"13"}

Member for

1 week 5 days
Submitted by SexySuperMan on Mon, 2020-09-14 00:15