Sound will begin in 5 seconds

Guitarmageddon

01234567891011121314151617181920212223
E
B
G
D
A
E
B
0 1 2 3 4 5 6 7 8 9 10 11 12 13 14 15 16 17 18 19 20 21 22 23
Song Science #1: How Pros Use 6 Chords to Write Hit Songs
(/) Slide Up  (\) Slide Down  (h) Hammer On  (p) Pull Off  (b) Bend (r) Release (v) Vibrato

Stave 1:

F|--------------------------------------------------------------
C|--------------2--1--------------------------2--1--------------
G|--------------------------------------------------------------
D|--0--0--0--3--------0--0--3--2--0--0--0--3--------0--0--2--1--

Stave 2:

F|--------------------------------------------------------------
C|-----------------1-----------------------------1--------------
G|--------------2-----------------------------2-----------------
D|--0--0--0--3--------0--0--3--2--0--0--0--3--------0--0--2--1--

Stave 3:

F|--------------------------------------------------------------
C|--------------2--1--------------------------2--1--------------
G|--------------------------------------------------------------
D|--0--0--0--3--------0--0--3--2--0--0--0--3--------0--0--2--1--

Stave 4:

F|---------------------------------------
C|---------------------------------------
G|--7--11--10--8-----7--11--10--8--------
D|----------------9----------------9--0--

Stave 5:

F|--------------------------------------------------------------------------------------------
C|--------------------------------------------------------------------------------------------
G|--------------------------------------------------------------------------------------------
D|-----------------------0--0--0--0--0--0--0--0--1--------------------0--0--0--0--0--0--0--0--

Stave 6:

F|--------------------------------------------------------------
C|--------------------------------------------------------------
G|--------------------------------------------------------------
D|--0--4--3--0--4--3--0--4--3--0--4--3--0--0--0--0--0--0--0--0--

Stave 7:

F|--------------------------------------------------
C|--------------------------------------------------
G|--------------------------------------------------
D|--1--1--1--1--1--1--1--1--3--3--3--3--4--4--4--4--

Stave 8:

F|--------------------------------------------------------------
C|--------------------------------------------------------------
G|--------------------------------------------------------------
D|--0--4--3--0--4--3--0--4--3--0--4--3--0--0--0--0--0--0--0--0--

Stave 9:

F|----------------------------------
C|----------------------------------
G|--------2--1h2--------2--1--------
D|--0--3----------0--3--------1--3--

Stave 10:

F|--------------------------------------------------------------------------
C|--------------------------------------------------------------------------
G|--------2--1--------------2--1-----4--------2--1--------------2--1--------
D|--0--3--------1--3--0--3--------1-----0--3--------1--3--0--3--------1--0--

Stave 11:

F|-----------------------------------------
C|-----------------------------------------
G|--1--1--1--------------2-----1-----------
D|-----------0--0--0--0-----3-----3--4--3--

Stave 12:

F|--------------------------------------------------
C|--------------------------------------------------
G|--------------------------------------------------
D|--0--4--3--0--4--3--0--4--3--0--4--3--0--0--0--0--

Stave 13:

F|-----------------------------------------------------------
C|-----------------------------------------------------------
G|-----------------1--------------------------------1--------
D|--0--0--0--0--0-----0--0--0--0--4--0--0--0--0--0-----4--3--

Stave 14:

F|--------------------------------------------------------------------------------------------------------------------
C|--------------------------------------------------------------------------------------------------------------------
G|-----------------3--------------1-----------------3--1--0-----------------3--------------1-----------------3--1-----
D|--2--2--2--2--2-----2--2--2--2-----2--2--2--2--2-----------2--2--2--2--2-----2--2--2--2-----2--2--2--2--2--------3--

Stave 15:

F|--------6--2--
C|--6--3--------
G|--------------
D|--------------

Stave 16:

F|--
C|--
G|--
D|--

http://www.guitartabcreator.com
Guitar Tab Creator is intended to store guitar tab created through the tool. It currently does not support in-line text editing. Any text you place in here will be lost. If you need to comment on your tab, please use the "Tab Notes" section located below.