Ocean by Splendor Tree

Chords

01234567891011121314151617181920212223
E
B
G
D
A
E
B
0 1 2 3 4 5 6 7 8 9 10 11 12 13 14 15 16 17 18 19 20 21 22 23
(/) Slide Up  (\) Slide Down  (h) Hammer On  (p) Pull Off  (b) Bend (r) Release (v) Vibrato

Capo Fret 1

Intro 1:

E |------------------------------------------------------------------------------------------------
B |------------------------------------------------------------------------------------------------
Ab|--------------0-----------------------0-----------------------0-------------------0----------0--
E |--------0--------------0--------0--------------0--------0--------------0-------0----------0-----
B |--5--------5--------5-----5--------5--------5-----5--------5--------5-----5/7--------7/9--------
Db|------------------------------------------------------------------------------------------------



E |-----------------------------------------------------------------------------------------------------------
B |-----------------------------------------------------------------------------------------------------------
Ab|----------------0--------------------------0--------------------------0------------------------------------
E |---------0----------------0---------0----------------0---------0----------------0--------0-----0--------0--
B |-----------------------------------------------------------------------------------------------------------
Db|--12--------12--------12-----12--------12--------12-----10--------10--------10-----8--------8--------8-----



E |------------------------------------------------------------------------------------------------
B |------------------------------------------------------------------------------------------------
Ab|--------------0-----------------------0-----------------------0-------------------0----------0--
E |--------0--------------0--------0--------------0--------0--------------0-------0----------0-----
B |--5--------5--------5-----5--------5--------5-----5--------5--------5-----5/7--------7/9--------
Db|------------------------------------------------------------------------------------------------



E |------------------------------------------------------------------------------------------------------------
B |------------------------------------------------------------------------------------------------------------
Ab|---------------------------------------------------------------------0--------------------------------------
E |---------0---------0---------0---------0------------0---------0----------------0---------------------12-----
B |-------------------------------------------------------------------------------------------12---------------
Db|--12--------12--------12--------12--------12-----------10--------10--------10-----8-------------------------



E |---------------------------------------------------------------------------------------------------
B |---------------------------------------------------------------------------------------------------
Ab|--------------0--------------------------------------------------------------------12--------------
E |--------0--------------0--------0-----0--------0--------0-----0--------0---------------------------
B |--5--------5--------5-----5--------5--------5-----5--------5--------5-----5------------------------
Db|---------------------------------------------------------------------------------------------------

Verse:

E |------------------------------------------------------------------------------------------
B |------------------------------------------------------------------------------------------
Ab|------------------------------------------------------------------------------------------
E |--------4-----4p2p0--0h2-----------2p0--------------4-----4p2p0--0h2-----------2p0--------
B |-----0--------------------0-----0----------0-----0--------------------0-----0----------0--
Db|--3--------3-----------------3----------3-----3--------3-----------------3----------3-----



E |------------------------------------------------------------------------------------------
B |------------------------------------------------------------------------------------------
Ab|-----------------------------------------------------------------------------------12-----
E |--------4-----4p2p0--0h2-----------2p0-------------------3----------------0---------------
B |-----0--------------------0-----0----------0-----0-------------0--0----0------------------
Db|--0--------0-----------------0----------0-----0---h2--2-----2-----2/8--------8------------

Chorus:

E |---------------------------------------0-0--0--0--0--0--0----
B |---------------------------------------0----0--0--0--0--0----
Ab|---------------------------------------0----0--0--0--0--0----
E |----------------------0-------0--------2p0--2--2--2--2--2p0--
B |-------------------0-----0h2-----------0----0--0--0--0--0----
Db|--0-----3/8-----3----------------------3----3--3--3--3--3----

							http://www.guitartabcreator.com
Tab Notes
Open E tuning, except tune 6 string down 3 half steps to a Db.
Instruments
{"strings":[[[".",".",".",".",".",".",".",".",".",".",".",".",".",".",".",".",".",".",".",".",".",".",".",".",".",".",".",".",".",".",".",".",".","."],[".",".",".",".",".",".",".",".",".",".",".",".",".",".",".",".",".",".",".",".",".",".",".",".",".",".",".",".",".",".",".",".",".","."],[".",".",".",".",0,".",".",".",".",".",".",".",0,".",".",".",".",".",".",".",0,".",".",".",".",".",".",".",0,".",".",".",".",0],[".",".",0,".",".",".",".",0,".",".",0,".",".",".",".",0,".",".",0,".",".",".",".",0,".",".",".",0,".",".",".",".",0,"."],[5,".",".",5,".",".",5,".",5,".",".",5,".",".",5,".",5,".",".",5,".",".",5,".",5,"/",7,".",".",7,"/",9,".","."],[".",".",".",".",".",".",".",".",".",".",".",".",".",".",".",".",".",".",".",".",".",".",".",".",".",".",".",".",".",".",".",".",".","."]],[[".",".",".",".",".",".",".",".",".",".",".",".",".",".",".",".",".",".",".",".",".",".",".",".",".",".",".",".",".",".",".","."],[".",".",".",".",".",".",".",".",".",".",".",".",".",".",".",".",".",".",".",".",".",".",".",".",".",".",".",".",".",".",".","."],[".",".",".",".",0,".",".",".",".",".",".",".",0,".",".",".",".",".",".",".",0,".",".",".",".",".",".",".",".",".",".","."],[".",".",0,".",".",".",".",0,".",".",0,".",".",".",".",0,".",".",0,".",".",".",".",0,".",".",0,".",0,".",".",0],[".",".",".",".",".",".",".",".",".",".",".",".",".",".",".",".",".",".",".",".",".",".",".",".",".",".",".",".",".",".",".","."],[12,".",".",12,".",".",12,".",12,".",".",12,".",".",12,".",10,".",".",10,".",".",10,".",8,".",".",8,".",".",8,"."]],[[".",".",".",".",".",".",".",".",".",".",".",".",".",".",".",".",".",".",".",".",".",".",".",".",".",".",".",".",".",".",".",".",".","."],[".",".",".",".",".",".",".",".",".",".",".",".",".",".",".",".",".",".",".",".",".",".",".",".",".",".",".",".",".",".",".",".",".","."],[".",".",".",".",0,".",".",".",".",".",".",".",0,".",".",".",".",".",".",".",0,".",".",".",".",".",".",".",0,".",".",".",".",0],[".",".",0,".",".",".",".",0,".",".",0,".",".",".",".",0,".",".",0,".",".",".",".",0,".",".",".",0,".",".",".",".",0,"."],[5,".",".",5,".",".",5,".",5,".",".",5,".",".",5,".",5,".",".",5,".",".",5,".",5,"/",7,".",".",7,"/",9,".","."],[".",".",".",".",".",".",".",".",".",".",".",".",".",".",".",".",".",".",".",".",".",".",".",".",".",".",".",".",".",".",".",".",".","."]],[[".",".",".",".",".",".",".",".",".",".",".",".",".",".",".",".",".",".",".",".",".",".",".",".",".",".",".",".",".",".",".","."],[".",".",".",".",".",".",".",".",".",".",".",".",".",".",".",".",".",".",".",".",".",".",".",".",".",".",".",".",".",".",".","."],[".",".",".",".",".",".",".",".",".",".",".",".",".",".",".",".",".",".",".",".",0,".",".",".",".",".",".",".",".",".",".","."],[".",".",0,".",".",0,".",".",0,".",".",0,".",".",".",0,".",".",0,".",".",".",".",0,".",".",".",".",".",".",12,"."],[".",".",".",".",".",".",".",".",".",".",".",".",".",".",".",".",".",".",".",".",".",".",".",".",".",".",".",12,".",".",".","."],[12,".",".",12,".",".",12,".",".",12,".",".",12,".",".",".",10,".",".",10,".",".",10,".",8,".",".",".",".",".",".","."]],[[".",".",".",".",".",".",".",".",".",".",".",".",".",".",".",".",".",".",".",".",".",".",".",".",".",".",".",".",".",".",".","."],[".",".",".",".",".",".",".",".",".",".",".",".",".",".",".",".",".",".",".",".",".",".",".",".",".",".",".",".",".",".",".","."],[".",".",".",".",0,".",".",".",".",".",".",".",".",".",".",".",".",".",".",".",".",".",".",".",".",".",".",12,".",".",".","."],[".",".",0,".",".",".",".",0,".",".",0,".",0,".",".",0,".",".",0,".",0,".",".",0,".",".",".",".",".",".",".","."],[5,".",".",5,".",".",5,".",5,".",".",5,".",".",5,".",5,".",".",5,".",".",5,".",5,".",".",".",".",".",".","."],[".",".",".",".",".",".",".",".",".",".",".",".",".",".",".",".",".",".",".",".",".",".",".",".",".",".",".",".",".",".",".","."]],[[".",".",".",".",".",".",".",".",".",".",".",".",".",".",".",".",".",".",".",".",".",".",".",".",".",".",".",".",".",".",".",".",".",".",".",".",".",".",".","."],[".",".",".",".",".",".",".",".",".",".",".",".",".",".",".",".",".",".",".",".",".",".",".",".",".",".",".",".",".",".",".",".",".",".",".",".",".",".",".","."],[".",".",".",".",".",".",".",".",".",".",".",".",".",".",".",".",".",".",".",".",".",".",".",".",".",".",".",".",".",".",".",".",".",".",".",".",".",".",".","."],[".",".",4,".",4,"p",2,"p",0,0,"h",2,".",".",".",2,"p",0,".",".",".",".",4,".",4,"p",2,"p",0,0,"h",2,".",".",".",2,"p",0,".","."],[".",0,".",".",".",".",".",".",".",".",".",".",0,".",0,".",".",".",".",0,".",0,".",".",".",".",".",".",".",".",".",".",0,".",0,".",".",".",".",0],[3,".",".",3,".",".",".",".",".",".",".",".",".",3,".",".",".",".",3,".",3,".",".",3,".",".",".",".",".",".",".",".",".",3,".",".",".",".",3,"."]],[[".",".",".",".",".",".",".",".",".",".",".",".",".",".",".",".",".",".",".",".",".",".",".",".",".",".",".",".",".",".",".",".",".",".",".",".","."],[".",".",".",".",".",".",".",".",".",".",".",".",".",".",".",".",".",".",".",".",".",".",".",".",".",".",".",".",".",".",".",".",".",".",".",".","."],[".",".",".",".",".",".",".",".",".",".",".",".",".",".",".",".",".",".",".",".",".",".",".",".",".",".",".",".",".",".",".",".",".",".",".",12,"."],[".",".",4,".",4,"p",2,"p",0,0,"h",2,".",".",".",2,"p",0,".",".",".",".",".",".",".",3,".",".",".",".",".",".",0,".",".",".","."],[".",0,".",".",".",".",".",".",".",".",".",".",0,".",0,".",".",".",".",0,".",0,".",".",".",".",".",0,0,".",".",0,".",".",".",".","."],[0,".",".",0,".",".",".",".",".",".",".",".",".",0,".",".",".",".",0,".",0,".","h",2,2,".",2,".",2,"/",8,".",".",8,".",".","."]],[[".",".",".",".",".",".",".",".",".",".",".",".",".",".",".",0,".",0,0,0,0,0,0,".","."],[".",".",".",".",".",".",".",".",".",".",".",".",".",".",".",0,".",".",0,0,0,0,0,".","."],[".",".",".",".",".",".",".",".",".",".",".",".",".",".",".",0,".",".",0,0,0,0,0,".","."],[".",".",".",".",".",".",".",".",0,".",".",".",0,".",".",2,"p",0,2,2,2,2,2,"p",0],[".",".",".",".",".",".",".",0,".",0,"h",2,".",".",".",0,".",".",0,0,0,0,0,".","."],[0,".",3,"/",8,".",3,".",".",".",".",".",".",".",".",3,".",".",3,3,3,3,3,".","."]]],"numberofstrings":6,"notes":["E","B","GsAb","E","B","CsDb"],"capo":"1","stringnotes":["E3","B2","Ab2","E2","B1","Db6"],"comments":["Intro 1:","","","","","Verse:","","Chorus:"],"timing":[["W","W",null,"W","W","W",null,"W","W",null,"W",null,"W","W","W",null,"W","W","W","W","W","W",null,"W","W","W","W","W","W","W","W","W",null,"W",null,"W","W","W"],[null,"W",null,"W","W","W","W","W","W","W",null,"W","W","W",null,"W",null,"W",null,"W","W","W",null,"W","W","W",null,"W","W",null,"W","W","W",null,null,null,"W","W"],[null,"W",null,"W","W","W",null,"W","W","W",null,"W","W","W",null,"W","W","W",null,"W","W","W",null,"W","W","W",null,"W","W","W","W",null,"W","W","W"],[null,"W",null,"W","W",null,"W","W",null,"W","W",null,"W","W",null,null,"W","W",null,"W","W","W",null,"W","W","W","W",null,"W",null,null,"W"],[null,"W",null,"W","W","W",null,"W","W","W",null,"W","W","W",null,"W","W","W",null,"W","W","W","W","W","W","W",null,null,"W"],[null,"W","W","W","W","W",null,"W",null,"W","W",null,"W","W","W","W","W",null,"W","W","W","W","W","W",null,"W",null,"W","W",null,"W","W","W","W","W",null,"W","W","W","W","W"],[null,"W","W","W","W","W",null,"W",null,"W","W",null,"W","W","W","W","W",null,"W","W","W","W","W",null,"W","W","W","W","W","W","W","W",null,"W",null,null,"W","W"],[null,"W",null,"W",null,"W",null,"W","W","W","W",null,"W","W",null,null,"W",null,"W","W","W","W","W","W",null,"W"]],"timingvisible":false,"tabcounter":25,"stave":7,"totalstaves":8,"instrument":"6guitar","selectedtuning":"Open E","version":"13"}

Member for

3 months 1 week
Submitted by seshhut on Fri, 2020-07-17 06:28