Sound will begin in 5 seconds

megalovania (acoustic)

01234567891011121314151617181920212223
E
B
G
D
A
E
B
0 1 2 3 4 5 6 7 8 9 10 11 12 13 14 15 16 17 18 19 20 21 22 23
Song Science #1: How Pros Use 6 Chords to Write Hit Songs
(/) Slide Up  (\) Slide Down  (h) Hammer On  (p) Pull Off  (b) Bend (r) Release (v) Vibrato

Stave 1:

E|----------------------|----------------------|-
B|-----10---------------|-----10---------------|-
G|--------9-8-7-5---5-7-|--------9-8-7-5---5-7-|-
D|-7-7------------7-----|-5-5------------7-----|-
A|----------------------|----------------------|-
E|----------------------|----------------------|-

Stave 2:

E|----------------------|----------------------|-
B|-----10---------------|-----10---------------|-
G|--------9-8-7-5---5-7-|--------9-8-7-5---5-7-|-
D|-9-9------------7-----|-8-8------------7-----|-
A|----------------------|----------------------|-
E|----------------------|----------------------|-

Stave 3:

E|----------------------|----------------------|-
B|-----10---------------|-----10---------------|-
G|--------9-8-7-5---5-7-|--------9-8-7-5---5-7-|-
D|-7-7------------7-----|-5-5------------7-----|-
A|----------------------|----------------------|-
E|----------------------|----------------------|-

Stave 4:

E|----------------------|----------------------|-
B|-----10---------------|-----10---------------|-
G|--------9-8-7-5---5-7-|--------9-8-7-5---5-7-|-
D|-9-9------------7-----|-8-8------------7-----|-
A|----------------------|----------------------|-
E|----------------------|----------------------|-

Stave 5:

E|----------------------|----------------------|-
B|-----10---------------|-----10---------------|-
G|--------9-8-7-5---5-7-|--------9-8-7-5---5-7-|-
D|-7-7------------7-----|-5-5------------7-----|-
A|----------------------|----------------------|-
E|----------------------|----------------------|-

Stave 6:

E|----------------------|----------------------|-
B|-----10---------------|-----10---------------|-
G|--------9-8-7-5---5-7-|--------9-8-7-5---5-7-|-
D|-9-9------------7-----|-8-8------------7-----|-
A|----------------------|----------------------|-
E|----------------------|----------------------|-

Stave 7:

E|----------------------|--------------------|-
B|-----10---------------|---10---------------|-
G|--------9-8-7-5---5-7-|------9-8-7-5---5-7-|-
D|-7-7------------7-----|-5------------7-----|-
A|----------------------|--------------------|-
E|----------------------|--------------------|-

Stave 8:

E|----------------------|--------------------5-|-8-8-8-8-------------------
B|-----10---------------|-----10---------6-8---|---------11-10-10-10-10-10-
G|--------9-8-7-5---5-7-|--------9-8-7-5-------|---------------------------
D|-9-9------------7-----|-8-8------------------|---------------------------
A|----------------------|----------------------|---------------------------
E|----------------------|----------------------|---------------------------

Stave 9:

E|-8-8-8-10-11-10-11-10-------10-|-8-8-8-10-11-12-15-12-|-
B|----------------------10-13----|----------------------|-
G|-------------------------------|----------------------|-
D|-------------------------------|----------------------|-
A|-------------------------------|----------------------|-
E|-------------------------------|----------------------|-

Stave 10:

E|-17-17-17----17-16-|-12-12-12-12-12-------|-
B|----------17-------|----------------15-15-|-
G|-------------------|----------------------|-
D|-------------------|----------------------|-
A|-------------------|----------------------|-
E|-------------------|----------------------|-

Stave 11:

E|-12-12-12-12-10-12-17-12-10-|-17-12-10-8-15-12-10-8-
B|----------------------------|-----------------------
G|----------------------------|-----------------------
D|----------------------------|-----------------------
A|----------------------------|-----------------------
E|----------------------------|-----------------------

http://www.guitartabcreator.com
Guitar Tab Creator is intended to store guitar tab created through the tool. It currently does not support in-line text editing. Any text you place in here will be lost. If you need to comment on your tab, please use the "Tab Notes" section located below.