Imagine John Lennon

Chords

01234567891011121314151617181920212223
E
B
G
D
A
E
B
0 1 2 3 4 5 6 7 8 9 10 11 12 13 14 15 16 17 18 19 20 21 22 23
(/) Slide Up  (\) Slide Down  (h) Hammer On  (p) Pull Off  (b) Bend (r) Release (v) Vibrato

Stave 1:

E|--------------0-----------------------0-----------
B|-----1-----------1-----1-----1-----------1-----0--
G|--------2-----------2-----------2-----------2-----
D|--------------------------------------------------
A|--3--------3--------------3--------3--------------
E|--------------------------------------------------

Stave 2:

E|--------------0-----------------------0-----------
B|-----1-----------1-----1-----1-----------1-----1--
G|--------2-----------2-----------2-----------2-----
D|--3--------3--------------3--------3--------------
A|--------------------------------------------------
E|--------------------------------------------------

Stave 3:

E|--------------0-----------------------0-----------
B|-----1-----------1-----1-----1-----------1-----0--
G|--------2-----------2-----------2-----------2-----
D|--------------------------------------------------
A|--3--------3--------------3--------3--------------
E|--------------------------------------------------

Stave 4:

E|--------------0-----------------------0-----------
B|-----1-----------1-----1-----1-----------1-----1--
G|--------2-----------2-----------2-----------2-----
D|--3--------3--------------3--------3--------------
A|--------------------------------------------------
E|--------------------------------------------------

Stave 5:

E|-----------------------------------------------
B|-----1--------1-----------1--------1--------1--
G|--------0--------0-----------0--------0--------
D|-----------2--------2--------------------------
A|-----------------------------------------------
E|--1--------------------0--------0--------0-----

Stave 6:

E|--------------1-----------------------1-----------
B|-----3-----------3-----3-----3-----------3-----3--
G|--------2-----------2-----------2-----------2-----
D|--0--------0--------------0--------0--------------
A|--------------------------------------------------
E|--------------------------------------------------

Stave 7:

E|--------------------------------------------------------------------------
B|-----3--------3--------3--------3--------3-----------3--------3--------3--
G|--------0--------0--------0--------0--------0-----------0--------0--------
D|--------------------------------------------------------------------------
A|--------------------------------------------------1--------1--------1-----
E|--3--------3--------3--------3--------3--------3--------------------------

Stave 8:

E|-----------------------------
B|-----1--------1--------1-----
G|--------2--------2-----------
D|-----------3--------3--------
A|-----------------------------
E|--1-----------------------3--

							http://www.guitartabcreator.com
Instruments
{"strings":[[[".",".",".",".",0,".",".",".",".",".",".",".",0,".",".","."],[".",1,".",".",".",1,".",1,".",1,".",".",".",1,".",0],[".",".",2,".",".",".",2,".",".",".",2,".",".",".",2,"."],[".",".",".",".",".",".",".",".",".",".",".",".",".",".",".","."],[3,".",".",3,".",".",".",".",3,".",".",3,".",".",".","."],[".",".",".",".",".",".",".",".",".",".",".",".",".",".",".","."]],[[".",".",".",".",0,".",".",".",".",".",".",".",0,".",".","."],[".",1,".",".",".",1,".",1,".",1,".",".",".",1,".",1],[".",".",2,".",".",".",2,".",".",".",2,".",".",".",2,"."],[3,".",".",3,".",".",".",".",3,".",".",3,".",".",".","."],[".",".",".",".",".",".",".",".",".",".",".",".",".",".",".","."],[".",".",".",".",".",".",".",".",".",".",".",".",".",".",".","."]],[[".",".",".",".",0,".",".",".",".",".",".",".",0,".",".","."],[".",1,".",".",".",1,".",1,".",1,".",".",".",1,".",0],[".",".",2,".",".",".",2,".",".",".",2,".",".",".",2,"."],[".",".",".",".",".",".",".",".",".",".",".",".",".",".",".","."],[3,".",".",3,".",".",".",".",3,".",".",3,".",".",".","."],[".",".",".",".",".",".",".",".",".",".",".",".",".",".",".","."]],[[".",".",".",".",0,".",".",".",".",".",".",".",0,".",".","."],[".",1,".",".",".",1,".",1,".",1,".",".",".",1,".",1],[".",".",2,".",".",".",2,".",".",".",2,".",".",".",2,"."],[3,".",".",3,".",".",".",".",3,".",".",3,".",".",".","."],[".",".",".",".",".",".",".",".",".",".",".",".",".",".",".","."],[".",".",".",".",".",".",".",".",".",".",".",".",".",".",".","."]],[[".",".",".",".",".",".",".",".",".",".",".",".",".",".","."],[".",1,".",".",1,".",".",".",1,".",".",1,".",".",1],[".",".",0,".",".",0,".",".",".",0,".",".",0,".","."],[".",".",".",2,".",".",2,".",".",".",".",".",".",".","."],[".",".",".",".",".",".",".",".",".",".",".",".",".",".","."],[1,".",".",".",".",".",".",0,".",".",0,".",".",0,"."]],[[".",".",".",".",1,".",".",".",".",".",".",".",1,".",".","."],[".",3,".",".",".",3,".",3,".",3,".",".",".",3,".",3],[".",".",2,".",".",".",2,".",".",".",2,".",".",".",2,"."],[0,".",".",0,".",".",".",".",0,".",".",0,".",".",".","."],[".",".",".",".",".",".",".",".",".",".",".",".",".",".",".","."],[".",".",".",".",".",".",".",".",".",".",".",".",".",".",".","."]],[[".",".",".",".",".",".",".",".",".",".",".",".",".",".",".",".",".",".",".",".",".",".",".","."],[".",3,".",".",3,".",".",3,".",".",3,".",".",3,".",".",".",3,".",".",3,".",".",3],[".",".",0,".",".",0,".",".",0,".",".",0,".",".",0,".",".",".",0,".",".",0,".","."],[".",".",".",".",".",".",".",".",".",".",".",".",".",".",".",".",".",".",".",".",".",".",".","."],[".",".",".",".",".",".",".",".",".",".",".",".",".",".",".",".",1,".",".",1,".",".",1,"."],[3,".",".",3,".",".",3,".",".",3,".",".",3,".",".",3,".",".",".",".",".",".",".","."]],[[".",".",".",".",".",".",".",".","."],[".",1,".",".",1,".",".",1,"."],[".",".",2,".",".",2,".",".","."],[".",".",".",3,".",".",3,".","."],[".",".",".",".",".",".",".",".","."],[1,".",".",".",".",".",".",".",3]]],"numberofstrings":6,"notes":["E","B","G","D","A","E","B"],"capo":0,"stringnotes":["E4","B3","G3","D3","A2","E2"],"comments":["Stave 1:","Stave 2:","Stave 3:","Stave 4:","Stave 5:","Stave 6:","Stave 7:","Stave 8:","Stave 9:"],"timing":[[null,null,null,null,null,null,null,null,null,null,null,null,null,null,null,null],[null,null,null,null,null,null,null,null,null,null,null,null,null,null,null,null],[null,null,null,null,null,null,null,null,null,null,null,null,null,null,null,null],[null,null,null,null,null,null,null,null,null,null,null,null,null,null,null,null],[null,null,null,null,null,null,null,null,null,null,null,null,null,null,null],[null,null,null,null,null,null,null,null,null,null,null,null,null,null,null,null],[null,null,null,null,null,null,null,null,null,null,null,null,null,null,null,null,null,null,null,null,null,null,null,null],[null,null,null,null,null,null,null,null,null],[null,null,null,null,null,null,null,null,null,null,null,null,null,null,null,null]],"timingvisible":false,"tabcounter":9,"stave":7,"totalstaves":8,"instrument":"6guitar","selectedtuning":"6_standard","version":"13"}

Member for

1 month 1 week
Submitted by semhang on Tue, 2020-09-22 03:05