Sound will begin in 5 seconds

12/16/15 SEG NEW SONG CHORDS

01234567891011121314151617181920212223
E
B
G
D
A
E
B
0 1 2 3 4 5 6 7 8 9 10 11 12 13 14 15 16 17 18 19 20 21 22 23
Song Science #1: How Pros Use 6 Chords to Write Hit Songs
(/) Slide Up  (\) Slide Down  (h) Hammer On  (p) Pull Off  (b) Bend (r) Release (v) Vibrato

Stave 1:

E|--------2--
B|-----------
G|-----------
D|-----2-----
A|--2--------
E|-----------

Stave 2:

E|-----3-----
B|-----------
G|-----------
D|-----------
A|--------2--
E|--3--------

Stave 3:

E|-----------
B|--------2--
G|-----------
D|-----2-----
A|--2--------
E|-----------

Stave 4:

E|--------------
B|-----------1--
G|--------2-----
D|-----2--------
A|--------------
E|--2-----------

Stave 5:

E|--------
B|-----1--
G|--------
D|--2-----
A|--------
E|--------

Stave 6:

E|--------------
B|-----------3--
G|--------2-----
D|-----3--------
A|--3-----------
E|--------------

Stave 7:

E|-----------
B|--------1--
G|-----1-----
D|-----------
A|--1--------
E|-----------

Stave 8:

E|-----------4--
B|--------6-----
G|-----5--------
D|--6-----------
A|--------------
E|--------------

Stave 9:

E|-----------------3--
B|--------------3-----
G|-----------4--------
D|--------5-----------
A|-----5--------------
E|--3-----------------

http://www.guitartabcreator.com
Guitar Tab Creator is intended to store guitar tab created through the tool. It currently does not support in-line text editing. Any text you place in here will be lost. If you need to comment on your tab, please use the "Tab Notes" section located below.