7String 3/4 Time

Chords

01234567891011121314151617181920212223
E
B
G
D
A
E
B
0 1 2 3 4 5 6 7 8 9 10 11 12 13 14 15 16 17 18 19 20 21 22 23
(/) Slide Up  (\) Slide Down  (h) Hammer On  (p) Pull Off  (b) Bend (r) Release (v) Vibrato

Stave 1:

E|-----------------------------------------------------------------------
B|-----------------------------------------------------------------------
G|-----------------------------------------------------------------------
D|-----------------------------------------------------------------------
A|--------------------------------------------------------------0h12h14--
E|---------------12---------------12---------------12--0h12h15-----------
B|--0--0--12h15------0--0--12h15------0--0--12h15------------------------

Stave 2:

E|------------------------------------------------------------------------
B|------------------------------------------------------------------------
G|------------------------------------------------------------------------
D|------------------------------------------------------------------------
A|--------------------------------------------------------------0h12------
E|---------------12---------------12---------------12--0h12h15--------14--
B|--0--0--12h15------0--0--12h15------0--0--12h15-------------------------

Stave 3:

E|-----------------------------------------------------------------------------------
B|-----------------------------------------------------------------------------------
G|-----------------------------------------------------------------------------------
D|-----------------------------------------------------------------------------------
A|-----------14--14--12-----------9---9---7-----------9---7--3-----------3--5--6--5--
E|-----------15--15--14-----------10--10--9-----------10--9--5-----------5--7--8--7--
B|--0--0--0--------------0--0--0-------------0--0--0------------0--0--0--------------

							http://www.guitartabcreator.com
Instruments
{"strings":[[[".",".",".",".",".",".",".",".",".",".",".",".",".",".",".",".",".",".",".",".",".",".",".",".",".",".",".","."],[".",".",".",".",".",".",".",".",".",".",".",".",".",".",".",".",".",".",".",".",".",".",".",".",".",".",".","."],[".",".",".",".",".",".",".",".",".",".",".",".",".",".",".",".",".",".",".",".",".",".",".",".",".",".",".","."],[".",".",".",".",".",".",".",".",".",".",".",".",".",".",".",".",".",".",".",".",".",".",".",".",".",".",".","."],[".",".",".",".",".",".",".",".",".",".",".",".",".",".",".",".",".",".",".",".",".",".",".",0,"h",12,"h",14],[".",".",".",".",".",12,".",".",".",".",".",12,".",".",".",".",".",12,0,"h",12,"h",15,".",".",".",".","."],[0,0,12,"h",15,".",0,0,12,"h",15,".",0,0,12,"h",15,".",".",".",".",".",".",".",".",".",".","."]],[[".",".",".",".",".",".",".",".",".",".",".",".",".",".",".",".",".",".",".",".",".",".",".",".",".",".","."],[".",".",".",".",".",".",".",".",".",".",".",".",".",".",".",".",".",".",".",".",".",".",".",".",".",".","."],[".",".",".",".",".",".",".",".",".",".",".",".",".",".",".",".",".",".",".",".",".",".",".",".",".",".","."],[".",".",".",".",".",".",".",".",".",".",".",".",".",".",".",".",".",".",".",".",".",".",".",".",".",".","."],[".",".",".",".",".",".",".",".",".",".",".",".",".",".",".",".",".",".",".",".",".",".",".",0,"h",12,"."],[".",".",".",".",".",12,".",".",".",".",".",12,".",".",".",".",".",12,0,"h",12,"h",15,".",".",".",14],[0,0,12,"h",15,".",0,0,12,"h",15,".",0,0,12,"h",15,".",".",".",".",".",".",".",".",".","."]],[[".",".",".",".",".",".",".",".",".",".",".",".",".",".",".",".",".",".",".",".",".",".",".",".","."],[".",".",".",".",".",".",".",".",".",".",".",".",".",".",".",".",".",".",".",".",".",".",".",".","."],[".",".",".",".",".",".",".",".",".",".",".",".",".",".",".",".",".",".",".",".",".",".",".",".","."],[".",".",".",".",".",".",".",".",".",".",".",".",".",".",".",".",".",".",".",".",".",".",".",".","."],[".",".",".",14,14,12,".",".",".",9,9,7,".",".",".",9,7,3,".",".",".",3,5,6,5],[".",".",".",15,15,14,".",".",".",10,10,9,".",".",".",10,9,5,".",".",".",5,7,8,7],[0,0,0,".",".",".",0,0,0,".",".",".",0,0,0,".",".",".",0,0,0,".",".",".","."]]],"numberofstrings":7,"notes":["E","B","G","D","A","E","B"],"capo":0,"stringnotes":["E3","B2","G2","D2","A1","E1","B0"],"comments":["Stave 1:","Stave 2:","Stave 3:","Stave 4:"],"timing":[["W","W","W",null,"W","W","W","W","W",null,"W","W","W","W","W",null,"W","W","W",null,"W","W","W","W",null,"W",null,"W"],["W","W","W",null,"W","W","W","W","W",null,"W","W","W","W","W",null,"W","W","W",null,"W",null,"W","W",null,"W","W"],["W","W","W","W","W","W","W","W","W","W","W","W","W","W","W","W","W","W","W","W","W","W","W","W","W"],["W"]],"timingvisible":false,"tabcounter":0,"totalstaves":3,"instrument":"7guitar","selectedtuning":"7guitar","version":"13"}

Member for

4 months 2 weeks
Submitted by SedativeCorpse on Mon, 2020-06-08 15:07