Sound will begin in 5 seconds

One Boy (from Bye Bye Birdie)

Chords
01234567891011121314151617181920212223
E
B
G
D
A
E
B
0 1 2 3 4 5 6 7 8 9 10 11 12 13 14 15 16 17 18 19 20 21 22 23
(/) Slide Up  (\) Slide Down  (h) Hammer On  (p) Pull Off  (b) Bend (r) Release (v) Vibrato

Capo Fret 1

Stave 1:

E|--------------------------------------------------------0-----0--4--0-----------------
B|--1--------------------------------------------------------4-----------4--1--3--1-----
G|-----0--------5--4--0--2--4--8--6--0--4--2-----------0--------------------------------
D|--2-----3--3--------------------------------2--5--3-----------------------------------
A|--3-----------------------------------0-----------------------------------3-----------
E|--------3--------3--3--------------------------0-----3--------------------------------

Stave 2:

E|-----------------
B|-----------------
G|-----------------
D|--0--2--5--2--0--
A|-----------------
E|-----------------

http://www.guitartabcreator.com
Guitar Tab Creator is intended to store guitar tab created through the tool. It currently does not support in-line text editing. Any text you place in here will be lost. If you need to comment on your tab, please use the "Tab Notes" section located below.