Sound will begin in 5 seconds

Sink into the Ocean

01234567891011121314151617181920212223
E
B
G
D
A
E
B
0 1 2 3 4 5 6 7 8 9 10 11 12 13 14 15 16 17 18 19 20 21 22 23
Song Science #1: How Pros Use 6 Chords to Write Hit Songs
(/) Slide Up  (\) Slide Down  (h) Hammer On  (p) Pull Off  (b) Bend (r) Release (v) Vibrato

Stave 1:

D |-----0--------------------------0-----------------------0--------------------------0-----------
A |--------0--------------------------0-----------------------0--------------------------0--------
Gb|--------------0--------------------------0-----------------------0--------------------------0--
D |-----------0--------------------------0-----------------------0--------------------------0-----
A |-----------------------------------------------------------------------------------------------
D |--0--------------------------0-----------------------0--------------------------0--------------

Stave 2:

D |-----0-----------------0--------9--------12-----7-----------5-----------4-----4-----4-----4--
A |--------4--------7---------------------------------------------------------------------------
Gb|-----------0--------------0------------------------0-----0-----------0-----0-----0-----0-----
D |--------------0--------------0------------------------------------0--------------------------
A |--------------------------------------0---------------0--------------------------------------
D |--0-----------------0--------------0---------0-----------------0-----------------------------

Stave 3:

D |-----------------------------------------------------------------------------
A |-----4--------4--------4--------4--------4--------4--------4--------4--------
Gb|--------0--------0--------0--------0--------5--------5--------5--------5-----
D |-----------------------------------------------------------------------------
A |-----------------------------------------------------------------------------
D |--0--------0--------0--------0--------0--------0--------0--------0--------0--

Stave 4:

D |--------------------------------------------------7------------------------------------------------
A |-----2--------2--------2--------2--------------4--------------5--7-----------7-----10-----9--------
Gb|--------0--------0--------0--------0---------------------------------------------------------------
D |--------------------------------------------0--------------0--------------0-----0------0-----------
A |-----------------------------------------0--------------0--------------0---------------------0-----
D |--0--------0--------0--------0--------0--------------0--------------0---------------------------0--

Stave 5:

D |---------------------------------------------------------------------------------------
A |-----0--------0------------0--------0-----------0--------0-----------0--------0--------
Gb|--------0--------0------------0--------0-----------0--------0-----------0--------0-----
D |-----------0--------0------------0--------0-----------0--------0-----------0--------0--
A |---------------------------------------------------------------------------------------
D |--9--------------------12--------------------4--------------------2--------------------

Stave 6:

D |--------------------------------
A |-----12--------16-----------14--
Gb|---------0---------0------------
D |------------0---------0---------
A |--------------------------------
D |--0----------------------0------

http://www.guitartabcreator.com
Guitar Tab Creator is intended to store guitar tab created through the tool. It currently does not support in-line text editing. Any text you place in here will be lost. If you need to comment on your tab, please use the "Tab Notes" section located below.