Sound will begin in 5 seconds

Paperboy Demo in Drop Db

01234567891011121314151617181920212223
E
B
G
D
A
E
B
0 1 2 3 4 5 6 7 8 9 10 11 12 13 14 15 16 17 18 19 20 21 22 23
Song Science #1: How Pros Use 6 Chords to Write Hit Songs
(/) Slide Up  (\) Slide Down  (h) Hammer On  (p) Pull Off  (b) Bend (r) Release (v) Vibrato

Stave 1:

Eb|-------------------------------------------
Bb|-------------------------------------------
Gb|------------------------------9------------
Db|--------11---------14-----11-----------11--
Ab|-----9---------12------0------------9------
Db|--0---------0--------------------9---------

Stave 2:

Eb|----------------------------------------
Bb|----------------------------------------
Gb|---------------------------7------------
Db|--------11--------6-----9-----------11--
Ab|-----9---------4-----0-----------9------
Db|--0---------4-----------------9---------

Stave 3:

Eb|---------------------
Bb|---------------------
Gb|---------------------
Db|--------11--------7--
Ab|-----9---------5-----
Db|--9---------0--------

Stave 4:

Eb|-------------------------------------------
Bb|-------------------------------------------
Gb|-------------------------------------------
Db|----------14--------11--------5--------11--
Ab|------12---------9---------5--------0------
Db|--12----------9---------5--------0---------

Stave 5:

Eb|------------------------------------------
Bb|------------------------------------------
Gb|------------------------------------------
Db|----------14--------11--------5--------4--
Ab|------12---------9---------5--------0-----
Db|--12----------9---------5--------0--------

http://www.guitartabcreator.com
Guitar Tab Creator is intended to store guitar tab created through the tool. It currently does not support in-line text editing. Any text you place in here will be lost. If you need to comment on your tab, please use the "Tab Notes" section located below.