Sound will begin in 5 seconds

Slash - Shadow Life (Solo)

01234567891011121314151617181920212223
E
B
G
D
A
E
B
0 1 2 3 4 5 6 7 8 9 10 11 12 13 14 15 16 17 18 19 20 21 22 23
Song Science #1: How Pros Use 6 Chords to Write Hit Songs
(/) Slide Up  (\) Slide Down  (h) Hammer On  (p) Pull Off  (b) Bend (r) Release (v) Vibrato

Stave 1:

E|--------------------------------------------------------------------------------------------------
B|--------------------------------------------------------------------------------------------------
G|------------------------------------------------------------------------------9b11--9--8h9p8------
D|---------------------------------------------------------------9------11----------------------11--
A|------------------7----9b11r9p7-----9b12r9p7-----7b9--7--9/11-----11------11----------------------
E|--0--0/9----9--9-----------------9------------9---------------------------------------------------

Stave 2:

E|------------------------------------------------------------------------------------9-------12---------
B|--------------------------10b12r10--10b12--10--9--10--9h10p9------9---------9--------/14--------14p12--
G|--8---------8------9------------------------------------------11-----11b13---/13-----------------------
D|-----9--11-----11-----11-------------------------------------------------------------------------------
A|-------------------------------------------------------------------------------------------------------
E|-------------------------------------------------------------------------------------------------------

Stave 3:

E|--14b16--14--12--14---------------------------14/16--------------------14h16h17p16p14-----------------
B|---------------------17b19--17--14----17--14---------14--14--14h16h17------------------17--16p14------
G|--------------------------------------------------------------------------------------------------16--
D|------------------------------------------------------------------------------------------------------
A|------------------------------------------------------------------------------------------------------
E|------------------------------------------------------------------------------------------------------

Stave 4:

E|------------------------------------------------------------------------14h16------14h16h17b19--
B|--14h16p14------14------------------------------14h16p14------14h16h17---------17---------------
G|------------16------16--14\13h14------13h14h16------------16------------------------------------
D|----------------------------------16------------------------------------------------------------
A|------------------------------------------------------------------------------------------------
E|------------------------------------------------------------------------------------------------

Stave 5:

E|--17--16--17--14--17--16--17--14--16------14--16--17--14--16------14----------------------------
B|--------------------------------------17----------------------17------16--17--14h16p14------14--
G|----------------------------------------------------------------------------------------16------
D|------------------------------------------------------------------------------------------------
A|------------------------------------------------------------------------------------------------
E|------------------------------------------------------------------------------------------------

Stave 6:

E|---------------------------------------------------------------------------------------------
B|---------14---------14--17---------14--17---------14--16--14h16p14------14-------------------
G|--16b18------16b18----------16b18----------16b18--------------------16------15h16--13h16p13--
D|---------------------------------------------------------------------------------------------
A|---------------------------------------------------------------------------------------------
E|---------------------------------------------------------------------------------------------

Stave 7:

E|----------------------------------------------------------------------------------------------
B|-----------------------------------------------17b19--16--17--16b17--16--14--16--14h16p14\13--
G|----------------------------------------------------------------------------------------------
D|----17------17b19--17------17------14b16r14---------------------------------------------------
A|--------17-------------17------17-------------------------------------------------------------
E|----------------------------------------------------------------------------------------------

Stave 8:

E|--16---------
B|------19b21--
G|-------------
D|-------------
A|-------------
E|-------------

http://www.guitartabcreator.com
Guitar Tab Creator is intended to store guitar tab created through the tool. It currently does not support in-line text editing. Any text you place in here will be lost. If you need to comment on your tab, please use the "Tab Notes" section located below.