Sound will begin in 5 seconds

Slash - No More Heroes (Solo)

01234567891011121314151617181920212223
E
B
G
D
A
E
B
0 1 2 3 4 5 6 7 8 9 10 11 12 13 14 15 16 17 18 19 20 21 22 23
Song Science #1: How Pros Use 6 Chords to Write Hit Songs
(/) Slide Up  (\) Slide Down  (h) Hammer On  (p) Pull Off  (b) Bend (r) Release (v) Vibrato

Stave 1:

Eb|--------------------------------------------------------------------14--------------17--------------17-
Bb|--------------------------------9-10--9-10-12-12b14r12p10-----17b19----17p14--19b21----19p17--20b21----
Gb|--------------9-11--9h11\13--11---------------------------11-------------------------------------------
Db|---------9-11------------------------------------------------------------------------------------------
Ab|-9-11-12-----------------------------------------------------------------------------------------------
Eb|-------------------------------------------------------------------------------------------------------

Stave 2:

Eb|-------19b21--21-21----21-19----19-17----17-16h17p16p14--16-14h16p14/12--14-12h14p12----12----------------
Bb|-20p17--------------19-------17-------15---------------------------------------------15----15-14h15p14p12-
Gb|----------------------------------------------------------------------------------------------------------
Db|----------------------------------------------------------------------------------------------------------
Ab|----------------------------------------------------------------------------------------------------------
Eb|----------------------------------------------------------------------------------------------------------

Stave 3:

Eb|------------------------------------------------------------------------------------------------------
Bb|-14-12h14p12----12-----------14----------14----------14----------14--------------------17b19-17-15-17-
Gb|-------------14-----14-11-11----13-13-13----14-14-14----16-16-16----16b18--16b18r16p14----------------
Db|------------------------------------------------------------------------------------------------------
Ab|------------------------------------------------------------------------------------------------------
Eb|------------------------------------------------------------------------------------------------------

Stave 4:

Eb|-------------------------------------12-12----12----14----14----14----14----14----14----------15b17-
Bb|-15b17--15-14-15-14b15--14-12-----12-------12----16----16----16----16----15----15----15-15/14-------
Gb|------------------------------14--------------------------------------------------------------------
Db|----------------------------------------------------------------------------------------------------
Ab|----------------------------------------------------------------------------------------------------
Eb|----------------------------------------------------------------------------------------------------

Stave 5:

Eb|-12h14-12--------------------------------
Bb|----------12b14r12--12b14r12--10---------
Gb|---------------------------------9-------
Db|-----------------------------------12/11-
Ab|-----------------------------------------
Eb|-----------------------------------------

http://www.guitartabcreator.com
Guitar Tab Creator is intended to store guitar tab created through the tool. It currently does not support in-line text editing. Any text you place in here will be lost. If you need to comment on your tab, please use the "Tab Notes" section located below.