Sound will begin in 5 seconds

Slash - Bad Rain (Solo) v2

01234567891011121314151617181920212223
E
B
G
D
A
E
B
0 1 2 3 4 5 6 7 8 9 10 11 12 13 14 15 16 17 18 19 20 21 22 23
Song Science #1: How Pros Use 6 Chords to Write Hit Songs
(/) Slide Up  (\) Slide Down  (h) Hammer On  (p) Pull Off  (b) Bend (r) Release (v) Vibrato

Stave 1:

E|------------------------------------------------------------------------------------
B|-11b13-11b13--11-10-11-10b12--------------10----------------------------------------
G|------------------------------12b14---/12----12b14-10-12-10b12-9-10-9-10-9b10-------
D|------------------------------------------------------------------------------10-10-
A|------------------------------------------------------------------------------------
E|------------------------------------------------------------------------------------

Stave 2:

E|------------------------------------------------------20----20----20----------------------------
B|---------18-------20b21r20p18-20b21r20p18----18h20b21----20----18----17-18-17h18p17p15----17----
G|-19--17-----19p17-------------------------19-------------------------------------------17----17-
D|------------------------------------------------------------------------------------------------
A|------------------------------------------------------------------------------------------------
E|------------------------------------------------------------------------------------------------

Stave 3:

E|--------------------------------------------------------------
B|-15h17p15----15-----------------------------------------------
G|----------17----15-17-14h15p14-12-14-12-10-12-12b14-----10----
D|-----------------------------------------------------------12\
A|--------------------------------------------------------------
E|--------------------------------------------------------------

http://www.guitartabcreator.com
Guitar Tab Creator is intended to store guitar tab created through the tool. It currently does not support in-line text editing. Any text you place in here will be lost. If you need to comment on your tab, please use the "Tab Notes" section located below.