Sound will begin in 5 seconds

Slash - Bad Rain (Solo)

01234567891011121314151617181920212223
E
B
G
D
A
E
B
0 1 2 3 4 5 6 7 8 9 10 11 12 13 14 15 16 17 18 19 20 21 22 23
Song Science #1: How Pros Use 6 Chords to Write Hit Songs
(/) Slide Up  (\) Slide Down  (h) Hammer On  (p) Pull Off  (b) Bend (r) Release (v) Vibrato

Stave 1:

Eb|----------------------------------------------------------------------------------------
Bb|----------------------------------------------------------------------------------------
Gb|--10-10-10-10-10-10-10-10---10---10/12-10--9--------------------------------------------
Db|---------------------------------------------------------7-5-7-8-3-3----9----5-5-----10-
Ab|--8--8--8--8--8--8--8--8----8----8--10-8---7----7-7----------------------------------10-
Db|------------------------------------------------7-7------7-5-7-8-3-3----9----5-5-----10-

Stave 2:

Eb|-----------------------------------------------------------------------------------------
Bb|-11b13--11-10-11-10b12r10----------------------------------------------------------------
Gb|---------------------------12--12b14---12b14--12-10-12--10b12--10-9-10--9b10--9----------
Db|--------------------------------------------------------------------------------10-10-10-
Ab|-----------------------------------------------------------------------------------------
Db|-----------------------------------------------------------------------------------------

Stave 3:

Eb|---------------------------------------------------------20----20----20----------------------------
Bb|--------------18-----20b21r20-18----20b21-20-18----20b21----20----18----17-18-17h18p17p15----17----
Gb|-19--19-19-19-----19-------------19-------------19----------------------------------------17----17-
Db|---------------------------------------------------------------------------------------------------
Ab|---------------------------------------------------------------------------------------------------
Db|---------------------------------------------------------------------------------------------------

Stave 4:

Eb|-----------------------------------------------------------------
Bb|-15h17p15----15--------------------------------------------------
Gb|----------17----15-17-14h15p14----14-----------------------------
Db|-------------------------------17----17-15-17-17b19--17b19r17-15-
Ab|-----------------------------------------------------------------
Db|-----------------------------------------------------------------

http://www.guitartabcreator.com
Guitar Tab Creator is intended to store guitar tab created through the tool. It currently does not support in-line text editing. Any text you place in here will be lost. If you need to comment on your tab, please use the "Tab Notes" section located below.