Sound will begin in 5 seconds

November Rain Outro Solo

01234567891011121314151617181920212223
E
B
G
D
A
E
B
0 1 2 3 4 5 6 7 8 9 10 11 12 13 14 15 16 17 18 19 20 21 22 23
Song Science #1: How Pros Use 6 Chords to Write Hit Songs
(/) Slide Up  (\) Slide Down  (h) Hammer On  (p) Pull Off  (b) Bend (r) Release (v) Vibrato

Stave 1:

E|-19b20-19--20-20b21-20-19-20-15----15-16--15h16p15\13-15--13-15-16-15-16p15p13----15----13----------13-
B|--------------------------------16---------------------------------------------16----16----16-15-16----
G|-------------------------------------------------------------------------------------------------------
D|-------------------------------------------------------------------------------------------------------
A|-------------------------------------------------------------------------------------------------------
E|-------------------------------------------------------------------------------------------------------

Stave 2:

E|--------------------------13-------13-------------
B|-16-15-16-15b16--13-15-16----15-16----15-13-15-13-
G|--------------------------------------------------
D|--------------------------------------------------
A|--------------------------------------------------
E|--------------------------------------------------

Stave 3:

E|-----------13-15h16p15p13----15----13h15p13-------------13-15h16p15p13----15----13h15p13-------13-
B|--13h15h16----------------16----16----------16-13h15h16----------------16----16----------15-16----
G|--------------------------------------------------------------------------------------------------
D|--------------------------------------------------------------------------------------------------
A|--------------------------------------------------------------------------------------------------
E|--------------------------------------------------------------------------------------------------

Stave 4:

E|--------------------------------
B|--16p15p13-16p15p13----13-------
G|--------------------15----15-13-
D|--------------------------------
A|--------------------------------
E|--------------------------------

Stave 5:

E|--19b20-19-20-20b21-20-19----------------------------------------------20--15-20-19-20-15-18-16-18-15-
B|------------------------------------------------------------------------------------------------------
G|--------------------------19b20r19p17-19b20r19p17-20b21r20b21r20-17-20--------------------------------
D|------------------------------------------------------------------------------------------------------
A|------------------------------------------------------------------------------------------------------
E|------------------------------------------------------------------------------------------------------

Stave 6:

E|--16p15\13-15----13-15----15----15----
B|--------------16-------16----16----16-
G|--------------------------------------
D|--------------------------------------
A|--------------------------------------
E|--------------------------------------

Stave 7:

E|--15-18-18b20-18b20-15----15----------------------------------------------------
B|-----------------------16----16-------------------------------------------------
G|--------------------------------17-15----15-15----------------------------------
D|--------------------------------------17-------17-16-15h16p15\13-15b16r15p13----
A|-----------------------------------------------------------------------------15-
E|--------------------------------------------------------------------------------

Stave 8:

E|--13-15-16/18-16-18-15-16p15-------16----15h16p15----15----------------------------------------
B|-----------------------------18-16----16----------18----19r18-16-18-16-18-16-20b21r20----------
G|--------------------------------------------------------------------------------------19b20r19-
D|-----------------------------------------------------------------------------------------------
A|-----------------------------------------------------------------------------------------------
E|-----------------------------------------------------------------------------------------------

Stave 9:

E|--19b20-19--20-20b21-20-19-20-15----15-16--15h16p15---------------------------
B|---------------------------------16-----------------18b20-16-18-15b16r15v-b16-
G|------------------------------------------------------------------------------
D|------------------------------------------------------------------------------
A|------------------------------------------------------------------------------
E|------------------------------------------------------------------------------

http://www.guitartabcreator.com
Guitar Tab Creator is intended to store guitar tab created through the tool. It currently does not support in-line text editing. Any text you place in here will be lost. If you need to comment on your tab, please use the "Tab Notes" section located below.