Sound will begin in 5 seconds

OZIELZINHO - Mr.Crowley

Chords
01234567891011121314151617181920212223
E
B
G
D
A
E
B
0 1 2 3 4 5 6 7 8 9 10 11 12 13 14 15 16 17 18 19 20 21 22 23
(/) Slide Up  (\) Slide Down  (h) Hammer On  (p) Pull Off  (b) Bend (r) Release (v) Vibrato

Stave 1:

E|----------------------------------------------------------------------------------------------------
B|----------------------------------------------------------------------------------------------------
G|--7-----9--10-----12-----14-----------------14--12--10-----10--12--14--16-----17--------------------
D|----------------------------------------------------------------------------------------------------
A|--5-----7--8------10-----12---------12v-----12--10--8------8---10--12--14-----15---------15v--------
E|--------------------------------13---------------------------------------------------17-------------

Stave 2:

E|--------------------------------------------------------------------------------------
B|--------------------------------------------------------------------------------------
G|--5--4--2-----4--5--7--9---------------------------10--10b12--10b12r10-----9--10--7v--
D|--5--4--2-----4--5--7--9---------------2/7v-----8-------------------------------------
A|--3--2--0-----2--3--5--7--------7v----------------------------------------------------
E|-----------------------------9--------------------------------------------------------

http://www.guitartabcreator.com
Guitar Tab Creator is intended to store guitar tab created through the tool. It currently does not support in-line text editing. Any text you place in here will be lost. If you need to comment on your tab, please use the "Tab Notes" section located below.