Sound will begin in 5 seconds

Lynyrd Skynyrd - Free Bird Solo

01234567891011121314151617181920212223
E
B
G
D
A
E
B
0 1 2 3 4 5 6 7 8 9 10 11 12 13 14 15 16 17 18 19 20 21 22 23
(/) Slide Up  (\) Slide Down  (h) Hammer On  (p) Pull Off  (b) Bend (r) Release (v) Vibrato

Stave 1:

E|------15-------------15---------------------------------------------
B|--15------15--18b20------18b20--18b20--18--15--18--18b20p15--18b20--
G|--------------------------------------------------------------------
D|--------------------------------------------------------------------
A|--------------------------------------------------------------------
E|--------------------------------------------------------------------

Stave 2:

E|------------------------18---------18---------18---------18---------
B|--18--15--18b20--18b20------18b20------18b20------18b20------18b20--
G|--------------------------------------------------------------------
D|--------------------------------------------------------------------
A|--------------------------------------------------------------------
E|--------------------------------------------------------------------

Stave 3:

E|------15-------------15---------------------------------------------
B|----------15--18b20------18b20--18b20--18--15--18--18b20p15--18b20--
G|--16----------------------------------------------------------------
D|--------------------------------------------------------------------
A|--------------------------------------------------------------------
E|--------------------------------------------------------------------

Stave 4:

E|------------------------18---------18---------18---------18---------
B|--18--15--18b20--18b20------18b20------18b20------18b20------18b20--
G|--------------------------------------------------------------------
D|--------------------------------------------------------------------
A|--------------------------------------------------------------------
E|--------------------------------------------------------------------

Stave 5:

E|---------18---------18---------18---------18---------18---------18---------18---------18---------
B|--18b20------18b20------18b20------18b20------18b20------18b20------18b20------18b20------18b20--
G|-------------------------------------------------------------------------------------------------
D|-------------------------------------------------------------------------------------------------
A|-------------------------------------------------------------------------------------------------
E|-------------------------------------------------------------------------------------------------

http://www.guitartabcreator.com
Guitar Tab Creator is intended to store guitar tab created through the tool. It currently does not support in-line text editing. Any text you place in here will be lost. If you need to comment on your tab, please use the "Tab Notes" section located below.