Sound will begin in 5 seconds

c#minor pentatonic scale fretboard

01234567891011121314151617181920212223
E
B
G
D
A
E
B
0 1 2 3 4 5 6 7 8 9 10 11 12 13 14 15 16 17 18 19 20 21 22 23
(/) Slide Up  (\) Slide Down  (h) Hammer On  (p) Pull Off  (b) Bend (r) Release (v) Vibrato

Stave 1:

E|---------------------2-4---------------------4-7---------------------7-9-
B|-----------------2-5---------------------5-7---------------------7-9-----
G|-------------1-4---------------------4-6---------------------6-9---------
D|---------2-4---------------------4-6---------------------6-9-------------
A|-----2-4---------------------4-7---------------------7-9-----------------
E|-2-4---------------------4-7---------------------7-9---------------------

Stave 2:

E|--------------------------9-12-------------------------------12-14-------------------------------14-16-
B|---------------------9-12------------------------------12-14-------------------------------14-17-------
G|----------------9-11-----------------------------11-13-------------------------------13-16-------------
D|-----------9-11----------------------------11-14-------------------------------14-16-------------------
A|------9-11---------------------------11-14-------------------------------14-16-------------------------
E|-9-12--------------------------12-14-------------------------------14-16-------------------------------

http://www.guitartabcreator.com
Guitar Tab Creator is intended to store guitar tab created through the tool. It currently does not support in-line text editing. Any text you place in here will be lost. If you need to comment on your tab, please use the "Tab Notes" section located below.