Sound will begin in 5 seconds

The Ocean by Led Zeppelin

Chords
01234567891011121314151617181920212223
E
B
G
D
A
E
B
0 1 2 3 4 5 6 7 8 9 10 11 12 13 14 15 16 17 18 19 20 21 22 23
Song Science #1: How Pros Use 6 Chords to Write Hit Songs
(/) Slide Up  (\) Slide Down  (h) Hammer On  (p) Pull Off  (b) Bend (r) Release (v) Vibrato

Stave 1:

E|-----------------------------------------------------------
B|-----------------------------------------------------------
G|-----------------------------------------------------------
D|--5h7--7--5------------------------5--------7-----7--------
A|-------------7---------------5--7-----5--7-----4-----5--7--
E|----------------8\---------------------------------------

Stave 2:

E|--------------------------------------------------------
B|-----7--7--7--7-----5--5--5--5-----2-----2-----------7--
G|-----7--7--7--7-----5--5--5--5-----2-----2-----5--7--7--
D|-----7--7--7--7-----5--5--5--5-----2-----2-----5--7--7--
A|-----5--5--5--5-----3--3--3--3-----0-----0-----3--5--5--
E|--------------------------------------3-----------------

Stave 3:

E|---------------------------------------------------|--|--------------------------------
B|---------------------------------------------------|--|--------------------------------
G|---------------------------------------------------|--|--------------------------------
D|--------------5h7--7--5----------------------------|--|--------5--------7-----7--------
A|-------------------------7-------------------------|--|--5--7-----5--7-----4-----5--7--
E|----------------------------8\---8--8--8--8--7--7--|--|--------------------------------

Stave 4:

E|-----------------------------------------------------------|------
B|--7--7--7--7-----5--5--5--5-----2-----2-----------7--7-----|--10--
G|--7--7--7--7-----5--5--5--5-----2-----2--5--7-----7--7-----|--10--
D|--7--7--7--7-----5--5--5--5-----2-----2--5--7-----7--7-----|--10--
A|--5--5--5--5-----3--3--3--3-----0-----0--3--5-----5--5-----|------
E|-----------------------------------3-----------------------|------

Stave 5:

E|------------------------------------------------------
B|------------------------------------------------------
G|------------------------------------------------------
D|--5h7--7--5-------------------5--------7-----7--------
A|-------------7----------5--7-----5--7-----4-----5--7--
E|----------------8\------------------------------------

Stave 6:

E|------------------------------------------------------------------
B|--7--7--7--7-----5--5--5--5-----------------5-----7--7--7-----12--
G|--7--7--7--7-----5--5--5--5-----7--6--7-----5-----7--7--7-----16--
D|--------------------------------7--5--7---------------------------
A|------------------------------------------------------------------
E|------------------------------------------------------------------

Stave 7:

E|--------------------
B|--------------------
G|--------------------
D|-----7-----------7--
A|--4-----5--7--------
E|--------------------

Stave 8:

E|-----------------------------------------------------------------------------
B|--7--7--7--7--7--7--7--7--7--7--7--7-----9--9--9--9--9--9--9--9--9--9--9--9--
G|--7--7--7--7--7--7--7--7--7--7--7--7-----9--9--9--9--9--9--9--9--9--9--9--9--
D|--7--7--7--7--7--7--7--7--7--7--7--7-----9--9--9--9--9--9--9--9--9--9--9--9--
A|-----------------------------------------------------------------------------
E|-----------------------------------------------------------------------------

Stave 9:

E|------------------------------------------------------
B|-----------------------------10--9--7-----------------
G|--6--3--2------------------------------9--6-----------
D|-----------4--2------------------------------9--7--9--
A|-----------------4--2--2------------------------------
E|------------------------------------------------------

http://www.guitartabcreator.com
Guitar Tab Creator is intended to store guitar tab created through the tool. It currently does not support in-line text editing. Any text you place in here will be lost. If you need to comment on your tab, please use the "Tab Notes" section located below.