Sound will begin in 5 seconds

Living After Midnight by Judas Priest

Chords
01234567891011121314151617181920212223
E
B
G
D
A
E
B
0 1 2 3 4 5 6 7 8 9 10 11 12 13 14 15 16 17 18 19 20 21 22 23
Song Science #1: How Pros Use 6 Chords to Write Hit Songs
(/) Slide Up  (\) Slide Down  (h) Hammer On  (p) Pull Off  (b) Bend (r) Release (v) Vibrato

Stave 1:

E|---------------------------------------------------------------------
B|---------------------------------------------------------------------
G|-9-9-x-7-x-----------9-9-x-7-x-----------9-9-x-7-x-------------------
D|-9-9-x-7-x-7-7-x-9-x-9-9-x-7-x-7-7-x-9-x-9-9-x-7-x-7-7-x-9-9-9-x-9-9-
A|-7-7-x-5-x-7-7-x-9-x-7-7-x-5-x-7-7-x-9-x-7-7-x-5-x-7-7-x-9-9-9-x-9-9-
E|-----------5-5-x-7-x-----------5-5-x-7-x-----------5-5-x-7-7-7-x-7-7-

Stave 2:

E|------------
B|------------
G|------------
D|-9-x-9----9-
A|-9-x-9----7-
E|-7-x-7----0-

Stave 3:

E|----------------------------------------------------------------------
B|----------------------------------------------------------------------
G|-x-9-x-9-x-9-x-9-x-9-x-9-x-9-x----------------------------------------
D|-x-9-x-9-x-9-x-9-x-9-x-9-x-9-x----5-2-2-2-2-2-2-5----2-2-2-2-2-2-2----
A|-x-7-x-7-x-7-x-7-x-7-x-7-x-7-x----5-2-2-2-2-2-2-5----2-2-2-2-2-2-2----
E|----------------------------------3-0-0-0-0-0-0-3----0-0-0-0-0-0-0----

Stave 4:

E|-------------------------------------------------------------------------------------------------
B|-------------------------------------------------------------------------------------------------
G|------4----7-7----9-9-x-7-x-----------9-9-x-7-x-----------9-9-x-7-x------------------------------
D|-4----4----7-7----9-9-x-7-x-7-7-x-9-x-9-9-x-7-x-7-7-x-9-x-9-9-x-7-x-7-7-x-9-9-9-x-9-9-9-x-9----9-
A|-4----2----5-5----7-9-x-5-x-7-7-x-9-x-7-7-x-5-x-7-7-x-9-x-7-7-x-5-x-7-7-x-9-9-9-x-9-9-9-x-9----7-
E|-2--------------------------5-5-x-7-x-----------5-5-x-7-x-----------5-5-x-7-7-7-x-7-7-7-x-7----0-

Stave 5:

E|-
B|-
G|-
D|-
A|-
E|-

http://www.guitartabcreator.com
Guitar Tab Creator is intended to store guitar tab created through the tool. It currently does not support in-line text editing. Any text you place in here will be lost. If you need to comment on your tab, please use the "Tab Notes" section located below.