Sound will begin in 5 seconds

bloodied heads of death

Chords
01234567891011121314151617181920212223
E
B
G
D
A
E
B
0 1 2 3 4 5 6 7 8 9 10 11 12 13 14 15 16 17 18 19 20 21 22 23
Song Science #1: How Pros Use 6 Chords to Write Hit Songs
(/) Slide Up  (\) Slide Down  (h) Hammer On  (p) Pull Off  (b) Bend (r) Release (v) Vibrato

Stave 1:

D|------------------------------------------------------------------------
A|------------------------------------------------------------------------
F|------------------------------------------------------------------------
C|----------------------------7-------------------------------7-----------
G|-----7h8p7--7-----7--8--11-----8-----7h8p7--7-----7--8--11-----8--7-----
D|--0------------0------------------0------------0---------------------7--

Stave 2:

D|----------------------------------------------------------------
A|----------------------------------------------------------------
F|----------------------------------------------------------------
C|--9--------------11--------------7--------------14--14--12--12--
G|--7--------------9---------------5--------------12--12--10--10--
D|-----0--0--0--0------0--0--0--0-----0--0--0--0------------------

Stave 3:

D|----------------------------------------------------------------
A|----------------------------------------------------------------
F|--9--------------11--------------7--------------14--14--12--12--
C|----------------------------------------------------------------
G|--7--------------9---------------5--------------12--12--10--10--
D|-----0--0--0--0------0--0--0--0-----0--0--0--0------------------

Stave 4:

D|----------------------------------------------------------------------
A|----------------------------------------------------------------------
F|----------------------------------------------------------------------
C|--9--------------------------11--------------7--------14--14--12--12--
G|--7--------------------------9---------------5--------12--12--10--10--
D|-----0--0--0--0--0--0--0--0--0---0--0--0--0-----0--0------------------

Stave 5:

D|--------------------------------------------------------
A|--------------------------------------------------------
F|--------------------------------------------------------
C|--------------------------5-----------------------------
G|--2--------------4--------3-----5--4--3-----4--3--------
D|--0--0--0--0--0--2--0--0-----------------5--------4--3--

Stave 6:

D|--
A|--
F|--
C|--
G|--
D|--

http://www.guitartabcreator.com
Guitar Tab Creator is intended to store guitar tab created through the tool. It currently does not support in-line text editing. Any text you place in here will be lost. If you need to comment on your tab, please use the "Tab Notes" section located below.