Sound will begin in 5 seconds

Cantina 2

Chords
01234567891011121314151617181920212223
E
B
G
D
A
E
B
0 1 2 3 4 5 6 7 8 9 10 11 12 13 14 15 16 17 18 19 20 21 22 23
Song Science #1: How Pros Use 6 Chords to Write Hit Songs
(/) Slide Up  (\) Slide Down  (h) Hammer On  (p) Pull Off  (b) Bend (r) Release (v) Vibrato

Stave 1:

E|-----------------------------------------------
B|-----6-----6-----6-----6-----6-----6-----------
G|-----7-----7-----7-----7-----7-----7-----------
D|-----7-----7-----7-----7-----7-----7--7-----7--
A|--5-----------5-----------5-----------8-----5--
E|--------5-----------5-----------5--------------

Stave 2:

E|--------------------------------------3--------
B|-----6-----6-----6-----6-----6-----6--3--------
G|-----7-----7-----7-----7-----7-----7--------5--
D|-----7-----7-----7-----7-----7-----7--------5--
A|--5-----------5-----------5--------------------
E|--------5-----------5-----------5--------------

Stave 3:

E|-----------3--5--3----------------------------------
B|-----------3-----3--------3/4--3-----------------1--
G|--3--3-----3-----3----------------1--2-----------2--
D|--3--3-----------5----------------------3--------3--
A|--1--2-----------5-------------------------------3--
E|-----------------3----------------------------------

Stave 4:

E|--------------------------------------------------
B|-----6-----6-----6-----6-----5-----3-----------6--
G|-----7-----7-----7-----7-----5-----3-----2-----7--
D|-----7-----7-----7-----7-----5-----3-----3-----7--
A|--5-----------5-----------3-----1--------3--5-----
E|--------5-----------5-----------------1-----------

Stave 5:

E|--------------------------------------------------
B|-----6-----6-----6-----6--5--5--------------------
G|-----7-----7-----7-----7--5--5--------------------
D|-----7-----7-----7--------5--5--------5--3--2-----
A|--5-----------5-----------3--3--------3--1--0-----
E|--------5-----------5--------------------------3--

Stave 6:

E|--------------------------------------------------
B|-----6-----6-----6-----6--5--5--------------6-----
G|-----7-----7-----7-----7--5--5--------2-----7-----
D|-----7-----7-----7-----7--5--5--------3-----7-----
A|--5-----------5-----------3--3--------3-----5-----
E|--------5-----------5-----------------1-----------

Stave 7:

E|--
B|--
G|--
D|--
A|--
E|--

http://www.guitartabcreator.com
Guitar Tab Creator is intended to store guitar tab created through the tool. It currently does not support in-line text editing. Any text you place in here will be lost. If you need to comment on your tab, please use the "Tab Notes" section located below.