Sound will begin in 5 seconds

Cantina 1

Chords
01234567891011121314151617181920212223
E
B
G
D
A
E
B
0 1 2 3 4 5 6 7 8 9 10 11 12 13 14 15 16 17 18 19 20 21 22 23
Song Science #1: How Pros Use 6 Chords to Write Hit Songs
(/) Slide Up  (\) Slide Down  (h) Hammer On  (p) Pull Off  (b) Bend (r) Release (v) Vibrato

Stave 1:

E|------10------10------10-----------------------------------------
B|--10------10------10------10--9--10--9--10--9--8--7--8--7--6-----
G|--------------------------------------------------------------7--
D|-----------------------------------------------------------------
A|-----------------------------------------------------------------
E|-----------------------------------------------------------------

Stave 2:

E|------10------10------10-------------------------8--6---------
B|--10------10------10------10--9--10--8--8--7--8--------10--8--
G|--------------------------------------------------------------
D|--------------------------------------------------------------
A|--------------------------------------------------------------
E|--------------------------------------------------------------

Stave 3:

E|------10------10------10-------------8--8----------------
B|--10------10------10------10--9--10--------10--8---------
G|--------------------------------------------------10--7--
D|---------------------------------------------------------
A|---------------------------------------------------------
E|---------------------------------------------------------

Stave 4:

E|------------4/5-----11--10---------------------------
B|-------5/6-------8----------9--10--------------------
G|--6/7------------------------------10--10--10--9--8--
D|-----------------------------------------------------
A|-----------------------------------------------------
E|-----------------------------------------------------

Stave 5:

E|--5-----5--------5-----5--------5-----4--5--------
B|--6-----6--------6-----6--------6-----------6-----
G|-----7--------------7--------------7-----------7--
D|--------------------------------------------------
A|--------------------------------------------------
E|--------------------------------------------------

Stave 6:

E|--5-----5--------5-----5--------5-----4--5--------
B|--6-----6--------6-----6--------6-----------8-----
G|-----7--------------7--------------7-----------5--
D|--------------------------------------------------
A|--------------------------------------------------
E|--------------------------------------------------

Stave 7:

E|--------------------4--5--------11--10--------------------
B|--------6--------6--------3-------------9--10---------10--
G|-----7--------7--------------------------------10-----10--
D|--8--------9------------------------------------------10--
A|----------------------------------------------------------
E|----------------------------------------------------------

http://www.guitartabcreator.com
Guitar Tab Creator is intended to store guitar tab created through the tool. It currently does not support in-line text editing. Any text you place in here will be lost. If you need to comment on your tab, please use the "Tab Notes" section located below.