Sound will begin in 5 seconds

Built to Last

01234567891011121314151617181920212223
E
B
G
D
A
E
B
0 1 2 3 4 5 6 7 8 9 10 11 12 13 14 15 16 17 18 19 20 21 22 23
Song Science #1: How Pros Use 6 Chords to Write Hit Songs
(/) Slide Up  (\) Slide Down  (h) Hammer On  (p) Pull Off  (b) Bend (r) Release (v) Vibrato

Stave 1:

E|-----------------------------------------13--10------10--
B|-----------------------------11------11----------11------
G|-------------10------10--12------12----------------------
D|--8--10--12------12--------------------------------------
A|---------------------------------------------------------
E|---------------------------------------------------------

Stave 2:

E|--10--10--8--10--12--10--8--12--10--8--10--8------8---------
B|----------------------------------------------10-----10--8--
G|------------------------------------------------------------
D|------------------------------------------------------------
A|------------------------------------------------------------
E|------------------------------------------------------------

Stave 3:

E|--12--10--8--10--8--10--12--10--8------------------10--12--10--------------
B|-----------------------------------10--13--10--13--------------13--10------
G|-----------------------------------------------------------------------10--
D|---------------------------------------------------------------------------
A|---------------------------------------------------------------------------
E|---------------------------------------------------------------------------

Stave 4:

E|-----------------------------10--------------10--12--12--13--12--10------10--12--10--------------
B|------10--13--10--12\12--13------13--12--13--------------------------13--------------13--10------
G|--10-----------------------------------------------------------------------------------------12--
D|-------------------------------------------------------------------------------------------------
A|-------------------------------------------------------------------------------------------------
E|-------------------------------------------------------------------------------------------------

Stave 5:

E|--12--10--8--10--12--10--8--5-------------------------------------10------10--13--18--17--15--
B|------------------------------------------------------11--11--13------11----------------------
G|------------------------------------------10--11--12------------------------------------------
D|-------------------------------8--10--12------------------------------------------------------
A|----------------------------------------------------------------------------------------------
E|----------------------------------------------------------------------------------------------

http://www.guitartabcreator.com
Guitar Tab Creator is intended to store guitar tab created through the tool. It currently does not support in-line text editing. Any text you place in here will be lost. If you need to comment on your tab, please use the "Tab Notes" section located below.