Sound will begin in 5 seconds

Texture

Chords
01234567891011121314151617181920212223
E
B
G
D
A
E
B
0 1 2 3 4 5 6 7 8 9 10 11 12 13 14 15 16 17 18 19 20 21 22 23
(/) Slide Up  (\) Slide Down  (h) Hammer On  (p) Pull Off  (b) Bend (r) Release (v) Vibrato

Stave 1:

G|----------15--19\17----------15--19\17----------15--19\17----------15--19\17--
D|------15-----------------15-----------------15-----------------15-------------
A|--13-----------------13-----------------13-----------------13-----------------
E|------------------------------------------------------------------------------
B|------------------------------------------------------------------------------

Stave 2:

G|----------12--15/17----------12--15/17----------12--15/17----------12--15/17--
D|------12-----------------12-----------------12-----------------12-------------
A|--10-----------------10-----------------10-----------------10-----------------
E|------------------------------------------------------------------------------
B|------------------------------------------------------------------------------

Stave 3:

G|----------15--19\17----------15--19\17----------15--19\17----------15--19\17--
D|------15-----------------15-----------------15-----------------15-------------
A|--13-----------------13-----------------13-----------------13-----------------
E|------------------------------------------------------------------------------
B|------------------------------------------------------------------------------

Stave 4:

G|----------12--15/17----------12--15/17----------12--15/17----------12--15/17--
D|------12-----------------12-----------------12-----------------12-------------
A|--10-----------------10-----------------10-----------------10-----------------
E|------------------------------------------------------------------------------
B|------------------------------------------------------------------------------

Stave 5:

G|----------17--21\19----------19--21/23----------17--21\19----------19--21/23--
D|------17-----------------19-----------------17-----------------19-------------
A|--15-----------------17-----------------15-----------------17-----------------
E|------------------------------------------------------------------------------
B|------------------------------------------------------------------------------

Stave 6:

G|----------19----------17----------15----------12----------15----------17----------19-----
D|------19----------17----------15----------12----------15----------17----------19---------
A|--17----------15----------13----------10----------13----------15----------17-------------
E|-----------------------------------------------------------------------------------------
B|-----------------------------------------------------------------------------------------

Stave 7:

G|--15--
D|--15--
A|--13--
E|------
B|------

http://www.guitartabcreator.com
Guitar Tab Creator is intended to store guitar tab created through the tool. It currently does not support in-line text editing. Any text you place in here will be lost. If you need to comment on your tab, please use the "Tab Notes" section located below.